» » »

U2 - Cedarwood Road Tabs

Artists:  A B C D E F G H I J K L M N O P Q R S T U V W X Y Z # 

Cedarwood Road Tabs

(ver. 1) Click to play this song!
U2
 Rating:
4/5 (4 votes)

 Cedarwood Road  lessons Tabs too difficult? Try these video lessons and learn fast
 
                intro

e|---------------------------------------------------------------------------|
B|--10-8-7-8-7-5--7-7-7-5-5--------------------------------------------------| 
G|---------------------------------------------------------------------------| x4
D|---------------------------------------------------------------------------|
A|---------------------------------------------------------------------------|
E|---------------------------------------------------------------------------|

e|---------------------------------------------------------------------------|
B|---------------------------------------------------------------------------|
G|-----------------------------------7-7-9-9---------------------------------| x4
D|-----------------------------------7-7-9-9---------------------------------|
A|-----------------------------------5-5-7-7---------------------------------|
E|--0-0-0-5-3-0-0-0-5-3-0-0-0-5-3-0------------------------------------------|

e|---------------------------------------------------------------------------|
B|---------------------------------------------------------------------------|
G|---------------------------------------------------------------------------|
D|---------------------------------------------------------------------------|
A|--7-5-2-0------------------------------------------------------------------|
E|----------3-2-0------------------------------------------------------------|

verse 1

palm muted

e|----------------------------------------------------------------------------------|
B|----------------------------------------------------------------------------------|
G|----------------------------------------------------------------------------------|
D|----------------------------------------------------------------------------------|
A|----------------------------------------------------------------------------------|
E|--0-0-0-0-0-0--0-0-0-0-0-0--5-5-5-5-5-5--3-3-3-3-3-3--8-8-8-8-8-8--8-8-8-8-8-8----|

e|---------------------------------------------------------------------------|
B|---------------------------------------------------------------------------|
G|---------------------------------------------------------------------------| x2
D|---------------------------------------------------------------------------|
A|---------------------------------------------------------------------------|
E|--5-5-5-5-5-5--7-7-7-7-7-7-------------------------------------------------|

e|---------------------------------------------------------------------------|
B|--10-8-7-8-7-5--7-7-7-5-5--------------------------------------------------| 
G|---------------------------------------------------------------------------| x2
D|---------------------------------------------------------------------------|
A|---------------------------------------------------------------------------|
E|---------------------------------------------------------------------------|

chorus 1

guitar 1

e|---------------------------------------------------------------------------|
B|--10-8-7-8-7-5--7-7-7-5-5--------------------------------------------------| 
G|---------------------------------------------------------------------------| x4
D|---------------------------------------------------------------------------|
A|---------------------------------------------------------------------------|
E|---------------------------------------------------------------------------|

guitar 2

e|---------------------------------------------------------------------------|
B|---------------------------------------------------------------------------|
G|---------------------------------------------------------------------------| x3
D|---------------------------------------------------------------------------|
A|---------------------------------------------------------------------------|
E|--8-8-8-8-12-12-12-12-7-7-7-7-8-8-8-8--------------------------------------|

e|---------------------------------------------------------------------------|
B|---------------------------------------------------------------------------|
G|---------------------------------------------------------------------------|
D|---------------------------------------------------------------------------|
A|---------------------------------------------------------------------------|
E|--8-8-8-8-8-8-8-8-7-7-7-7-5-5-5-5------------------------------------------|

afterwards

e|---------------------------------------------------------------------------|
B|---------------------------------------------------------------------------|
G|-----------------------------------7-7-9-9---------------------------------| x2 
D|-----------------------------------7-7-9-9---------------------------------|
A|-----------------------------------5-5-7-7---------------------------------|
E|--0-0-0-5-3-0-0-0-5-3-0-0-0-5-3-0------------------------------------------|

e|---------------------------------------------------------------------------|
B|---------------------------------------------------------------------------|
G|---------------------------------------------------------------------------|
D|---------------------------------------------------------------------------|
A|--7-5-2-0------------------------------------------------------------------|
E|----------3-2-0------------------------------------------------------------|

verse 2

verse 1

palm muted

e|----------------------------------------------------------------------------------|
B|----------------------------------------------------------------------------------|
G|----------------------------------------------------------------------------------|
D|----------------------------------------------------------------------------------|
A|----------------------------------------------------------------------------------|
E|--0-0-0-0-0-0--0-0-0-0-0-0--5-5-5-5-5-5--3-3-3-3-3-3--8-8-8-8-8-8--8-8-8-8-8-8----|

e|---------------------------------------------------------------------------|
B|---------------------------------------------------------------------------|
G|---------------------------------------------------------------------------| x2
D|---------------------------------------------------------------------------|
A|---------------------------------------------------------------------------|
E|--5-5-5-5-5-5--7-7-7-7-7-7-------------------------------------------------|

e|---------------------------------------------------------------------------|
B|--10-8-7-8-7-5--7-7-7-5-5--------------------------------------------------| 
G|---------------------------------------------------------------------------| x2
D|---------------------------------------------------------------------------|
A|---------------------------------------------------------------------------|
E|---------------------------------------------------------------------------|

chorus 2

guitar 1

e|---------------------------------------------------------------------------|
B|--10-8-7-8-7-5--7-7-7-5-5--------------------------------------------------| 
G|---------------------------------------------------------------------------| x4
D|---------------------------------------------------------------------------|
A|---------------------------------------------------------------------------|
E|---------------------------------------------------------------------------|

guitar 2

e|---------------------------------------------------------------------------|
B|---------------------------------------------------------------------------|
G|---------------------------------------------------------------------------| x3
D|---------------------------------------------------------------------------|
A|---------------------------------------------------------------------------|
E|--8-8-8-8-12-12-12-12-7-7-7-7-8-8-8-8--------------------------------------|

e|---------------------------------------------------------------------------|
B|---------------------------------------------------------------------------|
G|---------------------------------------------------------------------------|
D|---------------------------------------------------------------------------|
A|---------------------------------------------------------------------------|
E|--8-8-8-8-8-8-8-8-7-7-7-7-5-5-5-5------------------------------------------|

afterwards

e|---------------------------------------------------------------------------|
B|---------------------------------------------------------------------------|
G|-----------------------------------7-7-9-9---------------------------------| x2 
D|-----------------------------------7-7-9-9---------------------------------|
A|-----------------------------------5-5-7-7---------------------------------|
E|--0-0-0-5-3-0-0-0-5-3-0-0-0-5-3-0------------------------------------------|

e|---------------------------------------------------------------------------|
B|---------------------------------------------------------------------------|
G|---------------------------------------------------------------------------|
D|---------------------------------------------------------------------------|
A|--7-5-2-0------------------------------------------------------------------|
E|----------3-2-0------------------------------------------------------------|

solo into last chorus 

e|---------------------------------------------------------------------------|
B|---------------------------------------------------------------------------|
G|--9-9-9-9-9-9-9-9-9-9-9-9-9-11-12-12-12-14-16-16-17-16---------------------| x2
D|---------------------------------------------------------------------------|
A|--7-7-7-7-7-7-7-7-7-7-7-7-7--9-10-10-10-12-14-14-15-14---------------------|
E|---------------------------------------------------------------------------|

e|---------------------------------------------------------------------------|
B|---------------------------------------------------------------------------|
G|--9-9-9-9-12-9-9-7-7-4-4-7-7-9-9-9-9-12-9-9-7-7-7-7-7-7-7------------------|
D|---------------------------------------------------------------------------|
A|--7-7-7-7-10-7-7-5-5-2-2-5-5-7-7-7-7-10-7-7-5-5-5-5-5-5-5------------------|
E|---------------------------------------------------------------------------|

e|---------------------------------------------------------------------------|
B|---------------------------------------------------------------------------|
G|--9-9-9-9-9-9-9-9-9-9-9-9-9-11-12-12-12-14-16-16-17-16---------------------| x3
D|---------------------------------------------------------------------------|
A|--7-7-7-7-7-7-7-7-7-7-7-7-7--9-10-10-10-12-14-14-15-14---------------------|
E|---------------------------------------------------------------------------|

e|---------------------------------------------------------------------------|
B|---------------------------------------------------------------------------|
G|--9-9-9-9-12-9-9-7-7-4-4-7-7-9-9-9-9-12-9-9-7-7-7-7-7-7-7------------------|
D|---------------------------------------------------------------------------|
A|--7-7-7-7-10-7-7-5-5-2-2-5-5-7-7-7-7-10-7-7-5-5-5-5-5-5-5------------------|
E|---------------------------------------------------------------------------|

e|---------------------------------------------------------------------------|
B|---------------------------------------------------------------------------|
G|--9-9-9-9-9-9-9-9-9-9-9-9-9-11-12-12-12-14-16-16-17-16---------------------| 
D|---------------------------------------------------------------------------|
A|--7-7-7-7-7-7-7-7-7-7-7-7-7--9-10-10-10-12-14-14-15-14---------------------|
E|---------------------------------------------------------------------------|

e|---------------------------------------------------------------------------|
B|---------------------------------------------------------------------------|
G|--9-9-9-9-12-9-9-7-7-4-4-7-7-9-9-9-9-12-9-9-7-7-7-7-7-7-7------------------|
D|---------------------------------------------------------------------------|
A|--7-7-7-7-10-7-7-5-5-2-2-5-5-7-7-7-7-10-7-7-5-5-5-5-5-5-5------------------|
E|---------------------------------------------------------------------------|

e|---------------------------------------------------------------------------|
B|---------------------------------------------------------------------------|
G|--9-9-9-9-9-9-9-9-9-9-9-9-9-11-12-12-12-14-16-16-17-16---------------------|  
D|---------------------------------------------------------------------------|
A|--7-7-7-7-7-7-7-7-7-7-7-7-7--9-10-10-10-12-14-14-15-14---------------------|
E|---------------------------------------------------------------------------|

outro

e|---------------------------------------------------------------------------|
B|---------------------------------------------------------------------------|
G|-----------------------------------7-7-9-9---------------------------------| x4
D|-----------------------------------7-7-9-9---------------------------------|
A|-----------------------------------5-5-7-7---------------------------------|
E|--0-0-0-5-3-0-0-0-5-3-0-0-0-5-3-0------------------------------------------|

e|---------------------------------------------------------------------------|
B|---------------------------------------------------------------------------|
G|---------------------------------------------------------------------------|
D|---------------------------------------------------------------------------|
A|--7-5-2-0------------------------------------------------------------------|
E|----------3-2-0------------------------------------------------------------|            
Submit corrections


        Cedarwood Road  lessons Hard to play? Try these video lessons and learn fast Cedarwood Road  lessons
        
↑ Back to top | Tablatures and chords for acoustic guitar and electric guitar, ukulele, drums are parodies/interpretations of the original songs. You may use it for private study, scholarship, research or language learning purposes only