» » »

U2 - Cedarwood Road Tabs

Artists:  A B C D E F G H I J K L M N O P Q R S T U V W X Y Z # 

Cedarwood Road Tabs

(ver. 3) Click to play this song!
U2
 Rating:
4.3/5 (19 votes)

 Cedarwood Road lessons Tabs too difficult? Try these video lessons and learn fast
 
                [INTRO/CHORUS] 
...with a lot of DELAY

e|---------------------------------------------------------------------------|
B|-10---8-7-8-7-5---7-7-7-5--------------------------------------------------|
G|---------------------------------------------------------------------------|  x4
D|---------------------------------------------------------------------------|
A|---------------------------------------------------------------------------|
E|---------------------------------------------------------------------------|

[MAIN RIFF]

PALM MUTED, no delay

Strum Pattern:                                     (NOT MUTED)
   D U D U D U   U   U D U D U   D U D U D U   U   U D U D U D
e|-----------------------------|-------------------X-X-X-X-X-X---------------|
B|-----------------------------|-------------------7-7-7-7-9-9---------------|
G|-----------------------------|-------------------7-7-7-7-9-9---------------|  x2
D|-----------------------------|-------------------7-7-7-7-9-9---------------|
A|-----------------------------|-------------------5-5-5-5-7-7---------------|
E|-0-0-0-0-5-3---0---0-0-0-5-3-|-0-0-0-0-5-3---0---X-X-X-X-X-X---------------|

NOT PALM MUTED, no delay

Strum Pattern:                                     (NOT MUTED)
   D U D U D U   U   U D U D U   D U D U D U   U   U D U D U D
e|-----------------------------|-------------------X-X-X-X-X-X---------------|
B|-----------------------------|-------------------7-7-7-7-9-9---------------|
G|-----------------------------|-------------------7-7-7-7-9-9---------------|  x2
D|-----------------------------|-------------------7-7-7-7-9-9---------------|
A|-----------------------------|-------------------5-5-5-5-7-7---------------|
E|-0-0-0-0-5-3---0---0-0-0-5-3-|-0-0-0-0-5-3---0---X-X-X-X-X-X---------------|

NOT PALM MUTED, no delay

Strum Pattern:
   D U D U D   D   D
e|---------------------------------------------------------------------------|
B|---------------------------------------------------------------------------|
G|---------------------------------------------------------------------------|
D|---------------------------------------------------------------------------|  x1
A|-7-5-2-0-------------------------------------------------------------------|
E|---------3---2---0---------------------------------------------------------|


[VERSE+CHORUS]

Below is the power chord progression for the verse and chorus.
Each note designated is played as straight quarter notes, all downstrums.

E: 02XXXX
A: X02XXX
G: 35XXXX
C: X35XXX
B: X24XXX


E, E, A, G, C, C, A, B

E, E, A, G, C, C, A, B

C, E, B, A

C, E, B, A

C, E, B, A

C, E, B, A

C, E, B, A

C, C, B, B

C, C, B, B

[MAIN RIFF]

PALM MUTED, no delay

Strum Pattern:                                     (NOT MUTED)
   D U D U D U   U   U D U D U   D U D U D U   U   U D U D U D
e|-----------------------------|-------------------X-X-X-X-X-X---------------|
B|-----------------------------|-------------------7-7-7-7-9-9---------------|
G|-----------------------------|-------------------7-7-7-7-9-9---------------|  x2
D|-----------------------------|-------------------7-7-7-7-9-9---------------|
A|-----------------------------|-------------------5-5-5-5-7-7---------------|
E|-0-0-0-0-5-3---0---0-0-0-5-3-|-0-0-0-0-5-3---0---X-X-X-X-X-X---------------|

NOT PALM MUTED, no delay

Strum Pattern:                                     (NOT MUTED)
   D U D U D U   U   U D U D U   D U D U D U   U   U D U D U D
e|-----------------------------|-------------------X-X-X-X-X-X---------------|
B|-----------------------------|-------------------7-7-7-7-9-9---------------|
G|-----------------------------|-------------------7-7-7-7-9-9---------------|  x2
D|-----------------------------|-------------------7-7-7-7-9-9---------------|
A|-----------------------------|-------------------5-5-5-5-7-7---------------|
E|-0-0-0-0-5-3---0---0-0-0-5-3-|-0-0-0-0-5-3---0---X-X-X-X-X-X---------------|

NOT PALM MUTED, no delay

Strum Pattern:
   D U D U D   D   D
e|---------------------------------------------------------------------------|
B|---------------------------------------------------------------------------|
G|---------------------------------------------------------------------------|
D|---------------------------------------------------------------------------|  x1
A|-7-5-2-0-------------------------------------------------------------------|
E|---------3---2---0---------------------------------------------------------|

[VERSE+CHORUS]

Below is the power chord progression for the verse and chorus.
Each note designated is played as straight quarter notes, all downstrums.

E: 02XXXX
A: X02XXX
G: 35XXXX
C: X35XXX
B: X24XXX

E, E, A, G, C, C, A, B

E, E, A, G, C, C, A, B

C, E, B, A

C, E, B, A

C, E, B, A

C, E, B, A

C, E, B, A

C, C, B, B

C, C, B, B


[MAIN RIFF]

PALM MUTED, no delay

Strum Pattern:                                     (NOT MUTED)
   D U D U D U   U   U D U D U   D U D U D U   U   U D U D U D
e|-----------------------------|-------------------X-X-X-X-X-X---------------|
B|-----------------------------|-------------------7-7-7-7-9-9---------------|
G|-----------------------------|-------------------7-7-7-7-9-9---------------|  x2
D|-----------------------------|-------------------7-7-7-7-9-9---------------|
A|-----------------------------|-------------------5-5-5-5-7-7---------------|
E|-0-0-0-0-5-3---0---0-0-0-5-3-|-0-0-0-0-5-3---0---X-X-X-X-X-X---------------|

NOT PALM MUTED, no delay

Strum Pattern:                                     (NOT MUTED)
   D U D U D U   U   U D U D U   D U D U D U   U   U D U D U D
e|-----------------------------|-------------------X-X-X-X-X-X---------------|
B|-----------------------------|-------------------7-7-7-7-9-9---------------|
G|-----------------------------|-------------------7-7-7-7-9-9---------------|  x2
D|-----------------------------|-------------------7-7-7-7-9-9---------------|
A|-----------------------------|-------------------5-5-5-5-7-7---------------|
E|-0-0-0-0-5-3---0---0-0-0-5-3-|-0-0-0-0-5-3---0---X-X-X-X-X-X---------------|


[SOLO RIFF]
...with a lot of DELAY

e|-----------------|----------------------------------------------------------|
B|---------------7-|-8-8-8-10-12-12-12B14R12----------------------------------|
G|-9-9-9-9-9-9-9---|----------------------------------------------------------|  x10
D|-----------------|----------------------------------------------------------|
A|-----------------|----------------------------------------------------------|
E|-----------------|----------------------------------------------------------|

[MAIN RIFF]

PALM MUTED, no delay

Strum Pattern:                                     (NOT MUTED)
   D U D U D U   U   U D U D U   D U D U D U   U   U D U D U D
e|-----------------------------|-------------------X-X-X-X-X-X---------------|
B|-----------------------------|-------------------7-7-7-7-9-9---------------|
G|-----------------------------|-------------------7-7-7-7-9-9---------------|  x2
D|-----------------------------|-------------------7-7-7-7-9-9---------------|
A|-----------------------------|-------------------5-5-5-5-7-7---------------|
E|-0-0-0-0-5-3---0---0-0-0-5-3-|-0-0-0-0-5-3---0---X-X-X-X-X-X---------------|

NOT PALM MUTED, no delay

Strum Pattern:                                     (NOT MUTED)
   D U D U D U   U   U D U D U   D U D U D U   U   U D U D U D
e|-----------------------------|-------------------X-X-X-X-X-X---------------|
B|-----------------------------|-------------------7-7-7-7-9-9---------------|
G|-----------------------------|-------------------7-7-7-7-9-9---------------|  x2
D|-----------------------------|-------------------7-7-7-7-9-9---------------|
A|-----------------------------|-------------------5-5-5-5-7-7---------------|
E|-0-0-0-0-5-3---0---0-0-0-5-3-|-0-0-0-0-5-3---0---X-X-X-X-X-X---------------|

NOT PALM MUTED, no delay

Strum Pattern:
   D U D U D   D   D
e|---------------------------------------------------------------------------|
B|---------------------------------------------------------------------------|
G|---------------------------------------------------------------------------|
D|---------------------------------------------------------------------------|  x1
A|-7-5-2-0-------------------------------------------------------------------|
E|---------3---2---0---------------------------------------------------------|            
Submit corrections


        Cedarwood Road lessons Hard to play? Try these video lessons and learn fast Cedarwood Road lessons
        
↑ Back to top | Tablatures and chords for acoustic guitar and electric guitar, ukulele, drums are parodies/interpretations of the original songs. You may use it for private study, scholarship, research or language learning purposes only