Home » U » U2 »

U2 - Cedarwood Road Chords

Artists:  A B C D E F G H I J K L M N O P Q R S T U V W X Y Z # 

Cedarwood Road Chords

(ver. 1) Click to play this song!
U2
Intro 

E|------------------------------------|
B|-10---8-7-8-7---7-7-----------------|
G|--------------9-----9-9-------------|
D|------------------------------------|    X 4
A|------------------------------------|
E|------------------------------------|

                                                         
E|-------------------------------x--x-|
B|-------------------------------7--9-|
G|-------------------------------7--9-|             X 2 Muted
D|-------------------------------7--9-|             X 2 Not muted
A|-------------------------------5--7-|
E|-0-0-0-5-3-0-0-0-5-3-0-0-0-5-3-x--x-|


E|-----------------------|
B|-----------------------|
G|-----------------------|
D|-----------------------|  
A|----7-5----------------|
E|--------7-5-3-2-0------|.  When you play the 0 play the Em from beginning on verse too




           Em                    Am            G7
I was running down the road The fear was all I knew.
      Cmaj7                              Am7          B7
I was looking for a soul that?s real Then I ran into you.
          E7                         Am7           G7
And that cherry blossom tree Was a gateway to the sun.
      Cmaj7                       Am7       B7
And friendship once it?s won It?s won? it?s one.


Cmaj7 E7   B7              Am7
Northside just across the river to the 
Cmaj7 E7             B7      Am7
Southside That?s a long way here.


Cmaj7     E7      B7      Cmaj7
All the green and all the gold.
    Cmaj7     E7        B7      Am7
The hurt you hide, the joy you hold.
     Cmaj7   E7                 B7      Cmaj7
The foolish pride that gets you out the door.
           Am7         B7   Am7
Up on Cedarwood, Cedarwood Road.


E|-------------------------------x--x-|
B|-------------------------------7--9-|
G|-------------------------------7--9-|             X 2 Muted
D|-------------------------------7--9-|             X 2 Not muted
A|-------------------------------5--7-|
E|-0-0-0-5-3-0-0-0-5-3-0-0-0-5-3-x--x-|
 
E|------------------------------|
B|------------------------------|
G|------------------------------|
D|------------------------------|  
A|---------7-5------------------|
E|-----7-5-----3-2-0------------|

      E7                         Am7          G7
Sleepwalking down the road Not waking from those 
            Cmaj7                                      Am7            B7
?Cause it?s never dead it?s still in my head It was a warzone in my teens.
           E7                            Am7       G7
I?m still standing on that street Still need an enemy.
    Cmaj7                      Am 7      B7
The worst ones I can?t see You can? you can.


Cmaj7 E7   B7              Am7
Northside just across the river to the 
Cmaj7 E7             B7      Am7
Southside That?s a long way here.
 

Cmaj7     Em7     B7      Cmaj7
All the green and all the gold.
    Cmaj7     E7       B7      Am7
The hurt you hide, the joy you hold.
     Cmaj7   E7                   B7      Cmaj7
The foolish pride that sends you back for more.
        Cmaj7     B7        Am7
Up on Cedarwood, Cedarwood Road.

E|-------------------------------x--x-|
B|-------------------------------7--9-|
G|-------------------------------7--9-|             X 2 Muted
D|-------------------------------7--9-|             X 2 Not muted
A|-------------------------------5--7-|
E|-0-0-0-5-3-0-0-0-5-3-0-0-0-5-3-x--x-|

E|-----------------------------|
B|-----------------------------|
G|-----------------------------|
D|-----------------------------|  
A|---------7-5-----------------|
E|-----7-5-----3-2-0-----------|


Cmaj7  E7  B7  Am7


       Cmaj7    E7      B7    Am7
If the door is open it isn?t theft.
    Cmaj7   E7                   B7     Am7
You can?t return to where you?ve never left.
 Cmaj7                   E7          B7            Am7
Blossoms falling from a tree,  they cover you and cover me.
  Cmaj7                            B7                         Am7
Symbols clashing, bibles smashing Paint the world you need to see.
  Cmaj7               E7         B7          Am7    
Sometimes fear is the only place we can call home.
Cmaj7     B7    Am7
     Cedarwood Road.


E|-------------------------------x--x-|
B|-------------------------------7--9-|
G|-------------------------------7--9-|             X 2 Muted
D|-------------------------------7--9-|             X 2 Not muted
A|-------------------------------5--7-|
E|-0-0-0-5-3-0-0-0-5-3-0-0-0-5-3-x--x-|
 


   
A HEART THAT IS BROKEN.
    
IS A HEART THAT IS OPEN.

E|-----------------------------|
B|-----------------------------|
G|-----------------------------|
D|-----------------------------|  
A|---------7-5-----------------|
E|-----7-5-----3-2-0-----------|
            
Submit corrections

↑ Back to top | Tablatures and chords for acoustic guitar and electric guitar, ukulele, drums are parodies/interpretations of the original songs. You may use it for private study, scholarship, research or language learning purposes only