» » »

U2 - Beautiful Day Tabs

Artists:  A B C D E F G H I J K L M N O P Q R S T U V W X Y Z # 

Beautiful Day Tabs

(ver. 3) Click to play this song!
U2
 Rating:
4/5 (4 votes)

 Beautiful Day lessons Tabs too difficult? Try these video lessons and learn fast
 
                Beautiful day                                   
                                   U2



-------    ------    --     --   --   --   --     -- 
---        --  --    ----   --   --   --   ----   --
-------    ------    -- --  --   --   --   -- --  --
    ---    --  --    --  -- --   --   --   --  -- --                           
-------    --  --    --   ----   --   --   --   ----
                                --                                                                        
                             ----
                                                                   
E||---------------------|-------------------|---------------------|
B||---------------------|-------------------|---------------------|
G||--6------7------7----|------7------------|--7------7------6----|
D||----------------4----|------5------------|--4------------------|
A||--0------------------|-------------------|----------------0----|
E||---------7-----------|-------------------|---------------------|


                                                             
------------------|---------------------|-------------------|
------------------|---------------------|-------------------|
------------------|--6------7------7----|------7------------|
------------------|----------------4----|------5------------|
------------------|--0------------------|-------------------|
------------------|---------7-----------|-------------------|


                                                               
---------------------|------------------|---------------------|
---------------------|------------------|---------------------|
--7------7------6----|------------------|--6------7------7----|
--4------------------|------------------|----------------4----|
----------------0----|------------------|--0------------------|
---------------------|------------------|---------7-----------|


                                                             
-------------------|---------------------|------------------|
-------------------|---------------------|------------------|
------7------------|--7------7------6----|------------------|
------5------------|--4------------------|------------------|
-------------------|----------------0----|------------------|
-------------------|---------------------|------------------|


                                                                
---------------------|-------------------|---------------------|
---------------------|-------------------|---------------------|
--6------7------7----|------7------------|--7------7------6----|
----------------4----|------5------------|--4------------------|
--0------------------|-------------------|----------------0----|
---------7-----------|-------------------|---------------------|


                                                                 
------------------|---------2-----2-------|---------2-----------|
------------------|--2---------2-----3----|------3--------------|
------------------|-----------------------|------------4--------|
------------------|-----------------------|---------------------|
------------------|-----------------------|---------------------|
------------------|-----------------------|---------------------|


                                                                   
---------2-----------|--------2-----------|---------0-----0-------|
--0-------------2----|-----------2--------|--2---------2-----3----|
---------------------|--------------------|-----------------------|
---------------------|--------------------|-----------------------|
---------------------|--------------------|-----------------------|
---------------------|--------------------|-----------------------|


                                                               
---------2-----------|---------2-----------|------------------|
------3--------------|--0-------------2----|------------------|
------------4--------|---------------------|------------------|
---------------------|---------------------|------------------|
---------------------|---------------------|------------------|
---------------------|---------------------|------------------|


                                                                      
---------0-----------|-----2-----2----------0--|---------2-----------|
--2-------------3----|--3-----3-----0----0-----|--0-------------2----|
---------------------|-------------------------|---------------------|
---------------------|-------------------------|---------------------|
---------------------|-------------------------|---------------------|
---------------------|-------------------------|---------------------|


                                                                        
----0-----0-------0----|---------2-----------|----0-----0-----0-----0--|
-------2-----2---------|--2-------------3----|-------0-----0-----0-----|
-----------------------|---------------------|-------------------------|
-----------------------|---------------------|-------------------------|
-----------------------|---------------------|-------------------------|
-----------------------|---------------------|-------------------------|


                                                                            
---------2-----------|----0---------------|--------------------------10/---|
--0-------------2----|-------2------------|--10--10--10--12--12--12--10/---|
---------------------|--------------------|--9---9---9---11--11--11--7/----|
---------------------|--------------------|--7---7---7---9---9---9---------|
---------------------|--------------------|--------------------------------|
---------------------|--------------------|--------------------------------|


                                                   
----7--7--7--7--7--7----|-------------------------|
----8--8--8--8--8--8----|--7--7--7--7----7--10----|
----7--7--7--7--7--7----|--7--7--7--7----7--9-----|
------------------------|--7--7--7--7----7--7-----|
------------------------|-------------------------|
------------------------|-------------------------|


                                                                
------------------------------|--------------------------10/---|
----10--10--10--10--10--10----|--10--10--10--12--12--12--10/---|
----9---9---9---9---9---9-----|--9---9---9---11--11--11--7/----|
----7---7---7---7---7---7-----|--7---7---7---9---9---9---------|
------------------------------|--------------------------------|
------------------------------|--------------------------------|


                                                   
----7--7--7--7--7--7----|-------------------------|
----8--8--8--8--8--8----|--7--7--7--7----7--10----|
----7--7--7--7--7--7----|--7--7--7--7----7--9-----|
------------------------|--7--7--7--7----7--7-----|
------------------------|-------------------------|
------------------------|-------------------------|


                                                                              
------------------------------|---------0---------2--|-----0----------0------|
----10--10--10--10--10--10----|--2-------------3-----|--3-----0----0---------|
----9---9---9---9---9---9-----|----------------------|-----------------------|
----7---7---7---7---7---7-----|----------------------|-----------------------|
------------------------------|----------------------|-----------------------|
------------------------------|----------------------|-----------------------|


                                                                      
---------0---------2--|----2-----2-----------|-----2----0----2-------|
--0-------------2-----|-------2-----2--------|--2---------------3----|
----------------------|----------------------|-----------------------|
----------------------|----------------------|-----------------------|
----------------------|----------------------|-----------------------|
----------------------|----------------------|-----------------------|


                                                                    
----0----2-----2-------|---------0-----------|----0-----2----------|
------------0-----0----|--0-------------2----|-------2-------------|
-----------------------|---------------------|---------------------|
-----------------------|---------------------|---------------------|
-----------------------|---------------------|---------------------|
-----------------------|---------------------|---------------------|


                                                                         
-----0----2---------2--|-----0-----0------------|----------0---------2--|
--2--------------3-----|--3-----3-----0----0----|--0----0---------2-----|
-----------------------|------------------------|-----------------------|
-----------------------|------------------------|-----------------------|
-----------------------|------------------------|-----------------------|
-----------------------|------------------------|-----------------------|


                                                                       
------------0-----2--|-----0----2---------2--|-----0-----0------------|
---------------2-----|--2--------------3-----|--3-----3-----0----0----|
---------------------|-----------------------|------------------------|
---------------------|-----------------------|------------------------|
---------------------|-----------------------|------------------------|
---------------------|-----------------------|------------------------|


                                                                               
----0----2----------|--------------------------10/---|----7--7--7--7--7--7----|
--------------------|--10--10--10--12--12--12--10/---|----8--8--8--8--8--8----|
--------------------|--9---9---9---11--11--11--7/----|----7--7--7--7--7--7----|
--------------------|--7---7---7---9---9---9---------|------------------------|
--------------------|--------------------------------|------------------------|
--------------------|--------------------------------|------------------------|


                                                         
-------------------------|------------------------------|
--7--7--7--7----7--10----|----10--10--10--10--10--10----|
--7--7--7--7----7--9-----|----9---9---9---9---9---9-----|
--7--7--7--7----7--7-----|----7---7---7---7---7---7-----|
-------------------------|------------------------------|
-------------------------|------------------------------|


                                                          
--------------------------10/---|----7--7--7--7--7--7----|
--10--10--10--12--12--12--10/---|----8--8--8--8--8--8----|
--9---9---9---11--11--11--7/----|----7--7--7--7--7--7----|
--7---7---7---9---9---9---------|------------------------|
--------------------------------|------------------------|
--------------------------------|------------------------|


                                                         
-------------------------|------------------------------|
--7--7--7--7----7--10----|----10--10--10--10--10--10----|
--7--7--7--7----7--9-----|----9---9---9---9---9---9-----|
--7--7--7--7----7--7-----|----7---7---7---7---7---7-----|
-------------------------|------------------------------|
-------------------------|------------------------------|


                                                                  
--------------------------------|--------------------------------|
--14--14--14--12----14------15--|----15--15--15--15--15--15------|
--14--14--14--14--------14--14--|----12--12--12--12--12--12--14--|
------------------------14------|--------------------------------|
--------------------------------|--------------------------------|
--------------------------------|--------------------------------|


                                                                  
--------------------------------|--------------------------------|
--15--15------14----15------14--|----12--14--12--14--14--14--12--|
--14--14------14----14--14--14--|----14--14------14--14--14--14--|
----------14------------14------|--------------------------------|
--------------------------------|--------------------------------|
--------------------------------|--------------------------------|


                                                                  
--------------------------------|--------------------------------|
--14--14--14--12----14------15--|----15--15--15--15--15--15------|
--14--14--14--14--------14--14--|----12--12--12--12--12--12--14--|
------------------------14------|--------------------------------|
--------------------------------|--------------------------------|
--------------------------------|--------------------------------|


                                                                
--------------------------------|------------------------------|
--15--15------14----15------14--|----12--14----14--12--14--12--|
--14--14------14----14--14--14--|----14--14----14------14------|
----------14------------14------|------------------------------|
--------------------------------|------------------------------|
--------------------------------|------------------------------|


                                                                         
-----2-----0-----------|----------2----------2--|-----2-----2-----------|
--2-----2---------3----|--3----3-----0----0-----|--0-----0-----------2--|
-----------------------|------------------------|-----------------------|
-----------------------|------------------------|-----------------------|
-----------------------|------------------------|-----------------------|
-----------------------|------------------------|-----------------------|


                                                                       
------------------||---5----------5---------|--3----------2-----------|
------------------||---3--------------------|----------0-----0-----3--|
------------------||*--4-------4------------|-------0-----------0-----|
------------------||*--5----5----------5----|-------------------------|
------------------||------------------------|-------------------------|
------------------||------------------------|-------------------------|


                                                                     
--5--------------------|--3--------2--------|--5--------------------|
--3-------3---------3--|--------------------|--3-------3------------|
--2----2-------2-------|--------------------|--4----------4---------|
--0--------------------|--------------------|--5----5----------5----|
-----------------------|--------------------|-----------------------|
-----------------------|--------------------|-----------------------|


                                                                        
--3----------2----------|--5--------------------|--3--------2---------||
----------3----------0--|--3-------3---------3--|---------------------||
-------0----------0-----|--2----2-------2-------|--------------------*||
------------------------|-----------------------|--------------------*||
------------------------|-----------------------|---------------------||
------------------------|-----------------------|---------------------||


                                                                              
--0~---------------|--------------------------10/---|----7--7--7--7--7--7----|
--2~---------------|--10--10--10--12--12--12--10/---|----8--8--8--8--8--8----|
--2~---------------|--9---9---9---11--11--11--7/----|----7--7--7--7--7--7----|
--2~---------------|--7---7---7---9---9---9---------|------------------------|
--0~---------------|--------------------------------|------------------------|
-------------------|--------------------------------|------------------------|


                                                         
-------------------------|------------------------------|
--7--7--7--7----7--10----|----10--10--10--10--10--10----|
--7--7--7--7----7--9-----|----9---9---9---9---9---9-----|
--7--7--7--7----7--7-----|----7---7---7---7---7---7-----|
-------------------------|------------------------------|
-------------------------|------------------------------|


                                                          
--------------------------10/---|----7--7--7--7--7--7----|
--10--10--10--12--12--12--10/---|----8--8--8--8--8--8----|
--9---9---9---11--11--11--7/----|----7--7--7--7--7--7----|
--7---7---7---9---9---9---------|------------------------|
--------------------------------|------------------------|
--------------------------------|------------------------|


                                                         
-------------------------|------------------------------|
--7--7--7--7----7--10----|----10--10--10--10--10--10----|
--7--7--7--7----7--9-----|----9---9---9---9---9---9-----|
--7--7--7--7----7--7-----|----7---7---7---7---7---7-----|
-------------------------|------------------------------|
-------------------------|------------------------------|


                                                                  
--------------------------------|--------------------------------|
--14--14--14--12----14------15--|----15--15--15--15--15--15------|
--14--14--14--14--------14--14--|----12--12--12--12--12--12--14--|
------------------------14------|--------------------------------|
--------------------------------|--------------------------------|
--------------------------------|--------------------------------|


                                                                  
--------------------------------|--------------------------------|
--15--15------14----15------14--|----12--14--12--14--14--14--12--|
--14--14------14----14--14--14--|----14--14------14--14--14--14--|
----------14------------14------|--------------------------------|
--------------------------------|--------------------------------|
--------------------------------|--------------------------------|


                                                                  
--------------------------------|--------------------------------|
--14--14--14--12----14------15--|----15--15--15--15--15--15------|
--14--14--14--14--------14--14--|----12--12--12--12--12--12--14--|
------------------------14------|--------------------------------|
--------------------------------|--------------------------------|
--------------------------------|--------------------------------|


                                                                
--------------------------------|------------------------------|
--15--15------14----15------14--|----12--14----14--12--14--12--|
--14--14------14----14--14--14--|----14--14----14------14------|
----------14------------14------|------------------------------|
--------------------------------|------------------------------|
--------------------------------|------------------------------|


                                                      
-----2-----2-----2-----2--|-----2-----2-----2-----2--|
--2-----2-----2-----3-----|--3-----3-----3-----3-----|
--------------------------|--------------------------|
--------------------------|--------------------------|
--------------------------|--------------------------|
--------------------------|--------------------------|


                                                                                
-----2-----2-----2-----2--|-----2-----2-----2-------|-----2-----2-----2-----2--|
--3-----3-----3-----5-----|--5-----5-----5-----5/---|--2-----2-----2-----3-----|
--------------------------|-------------------------|--------------------------|
--------------------------|-------------------------|--------------------------|
--------------------------|-------------------------|--------------------------|
--------------------------|-------------------------|--------------------------|


                                                                                
-----2-----2-----2-----2--|-----2-----2-----2-----2--|-----2-----2-----2-------|
--3-----3-----3-----3-----|--3-----3-----3-----5-----|--5-----5-----5-----5/---|
--------------------------|--------------------------|-------------------------|
--------------------------|--------------------------|-------------------------|
--------------------------|--------------------------|-------------------------|
--------------------------|--------------------------|-------------------------|


                                                                  
--------------------------------|--------------------------------|
--14--14--14--12----14--15--15--|----15--15--15--15--15--15------|
--14--14--14--14----14--14--14--|----12--12--12--12--12--12--14--|
--------------------------------|--------------------------------|
--------------------------------|--------------------------------|
--------------------------------|--------------------------------|


                                                                  
--------------------------------|--------------------------------|
--15--15--15--14----15--14--14--|----12--14--12--14--12--14--12--|
--14--14--14--14----14--14--14--|----14--14------14------14------|
--------------------------------|--------------------------------|
--------------------------------|--------------------------------|
--------------------------------|--------------------------------|


                                                                  
--------------------------------|--------------------------------|
--14--14--14--12----14--15--15--|----15--15--15--15--15--15------|
--14--14--14--14----14--14--14--|----12--12--12--12--12--12--14--|
--------------------------------|--------------------------------|
--------------------------------|--------------------------------|
--------------------------------|--------------------------------|


                                                                  
--------------------------------|--------------------------------|
--15--15--15--14----15--14--14--|----12--14--12--14--12--14--12--|
--14--14--14--14----14--14--14--|----14--14------14------14------|
--------------------------------|--------------------------------|
--------------------------------|--------------------------------|
--------------------------------|--------------------------------|


                                                                
---------------------|-------------------|---------------------|
--2------3------7----|-------------------|--7-------------5----|
--2------4------7----|------4------------|--7------7-----------|
---------------------|------5------------|----------------7----|
---------------------|-------------------|---------------------|
---------------------|-------------------|---------------------|


                                                                
-------------------|---------------------|---------------------|
-------------------|--2------3------7----|---------------------|
----------6--------|--2------4------7----|------4--------------|
-------------------|---------------------|------5--------------|
-------------------|---------------------|----------------5----|
-------------------|---------------------|-----------3---------|


                       
------------3--------||
-------3-------------||
--4------------------||
---------------------||
---------------------||
---------------------||
            
Submit corrections


        Beautiful Day lessons Hard to play? Try these video lessons and learn fast Beautiful Day lessons
        
↑ Back to top | Tablatures and chords for acoustic guitar and electric guitar, ukulele, drums are parodies/interpretations of the original songs. You may use it for private study, scholarship, research or language learning purposes only