Home » T » Two Door Cinema Club »

Two Door Cinema Club - Sleep Alone Bass

Artists:  A B C D E F G H I J K L M N O P Q R S T U V W X Y Z # 

Sleep Alone Bass

(ver. 1) Click to play this song!
Two Door Cinema Club
[Intro/Verse 1]
 
G|----------|
D|----------| X2
A|-3--5-----|
E|------5--1|
 
 
[Pre-Chorus]
 
G|---------------------------10---10---7---7---7---7------------------------------|
D|---5---5---5---5---7---7-----------------------------5---5-----5----------------|
A|-------------------------8----8----5---5---5---5--------------------------------|
E|-3---3---3---3---5---5-----------------------------3---3---3-3---3-3-3-3-3-3-3-3|
 
 
[Chorus]
 
G|-----------5--------------7---7--14-12---------2-5-------------------|
D|---7---5-7----------3-5----------------------------------------------|X4
A|------------------------5---5----------------------------------------|
E|-5---5-------1-1-1--------------------3-3-3--3-----------------------|
 
 
 
[Verse 2]
 
G|----------|
D|----------| X2
A|-3--5-----|
E|------5--1|
 
 
[Chorus]
 
G|-----------5--------------7---7--14-12---------2-5-------------------|
D|---7---5-7----------3-5----------------------------------------------|X4
A|------------------------5---5----------------------------------------|
E|-5---5-------1-1-1--------------------3-3-3--3-----------------------|
 
 
[Bridge]
 
G|-----------------------------------10---10-12-9--------------10---10---12-9-------------|
D|-----------------------------------------------10-----------------------------10--------|X2
A|-----------------7-7-7-7-7-7-7-7-8----8-------------12-10--8----8------------------12-10|
E|-5-5-5-5-5-5-5-5-----------------------------8----8-------------------------8----8------|
 
Interlude:Bass cuts out
 
 
[Chorus]
 
G|-----------5--------------7---7--14-12---------2-5-------------------|
D|---7---5-7----------3-5----------------------------------------------|X2
A|------------------------5---5----------------------------------------|
E|-5---5-------1-1-1--------------------3-3-3--3-----------------------|
 
G|-----------5--------------7---7--14-12-------------------------------|
D|---7---5-7----------3-5----------------------------------------------|
A|------------------------5---5----------------------------------------|
E|-5---5-------1-1-1--------------------3-3-3-3-3-3-3-3----------------|
 
 
[Outro]
 
G|---------------------------------------------------------------------------|
D|---------------------------------------------------------------------------|
A|-3-3-3-3-3-3-3-3-5-5-5-5-5-5-5-5-5-7-5-3-----------------------------------|
E|-----------------------------------------5-5-5-5-5-5-5-5-1-1-1-1-1-1-1-1---|
 
G|-----2------------------------------------------------------------------------|
D|-3-5--------------------------------------------------------------------------|
A|-------3-3-3-3-3-3-3-3-5-5-5-5-5-5-5-5-5-7-5-3--------------------------------|
E|-----------------------------------------------5-5-5-5-5-5-5-5-1-1-1-1-1-1-1-1|
 
G|-----2----------------------------------------------------------------------|
D|-3-5------------------------------------------------------------------------|
A|-------3/-------------------------------------------------------------------|
E|----------------------------------------------------------------------------|
            
Submit corrections

↑ Back to top | Tablatures and chords for acoustic guitar and electric guitar, ukulele, drums are parodies/interpretations of the original songs. You may use it for private study, scholarship, research or language learning purposes only