Home » T » Two Door Cinema Club »

Two Door Cinema Club - Sleep Alone Tabs

Artists:  A B C D E F G H I J K L M N O P Q R S T U V W X Y Z # 

Sleep Alone Tabs

(ver. 1) Click to play this song!
Two Door Cinema Club
[Intro/Verse]

e|------12------------------12--------------------12-------------------|
B|---------12-------------------13-------------------12----------------|
G|-9/12-------12~---------9/12------14~-------9/12-----12-------9-12---|
D|------------------------------------------------------------------12-|
A|---------------------------------------------------------------------|
E|---------------------------------------------------------------------|

[Pre-Chorus]

e|-----------------------------------------------------------------|
B|-----------------------------------------------------------------|
G|-12-12-12-12-12-12-12-12-12-12-7-7-7-5-5-5-7-7-7-9-9-9-7-7-7/12--|
D|-----------------------------------------------------------------|
A|-----------------------------------------------------------------|
E|-----------------------------------------------------------------|

e|----------------------------------------------------------12-12-12-12-12-12-|
B|----------------------------------------------------------------------------|
G|-12-12-12-12-12-12-12-12-12-14-9-9-9-7-7-7-12-12/14\12-12-12-12-12-12-12-12-|
D|----------------------------------------------------------------------------|
A|----------------------------------------------------------------------------|
E|----------------------------------------------------------------------------|

[Chorus]

e|-12-12-12-10-10-10-10-10-10/-15-15-17-17-15-15-17-15-----------------------|
B|-----------------------------------------------------17-17-15-15-17-17-15--|
G|-12-12-12-12-12-12-12-12-12/-17-17-17-17-17-17-17-17-17-17-17-17-17-17-15--|
D|---------------------------------------------------------------------------|
A|---------------------------------------------------------------------------|   \
E|---------------------------------------------------------------------------|   |
                                                                                 | x2
e|---------------------------------------------------------------------------|   |
B|-17-15-17-15-17-13---------------------------------------------------------|   /
G|-------------------14-14-14-14-10-12-10-9-7-7-7-7-7------------------------|
D|---------------------------------------------------------------------------|
A|---------------------------------------------------------------------------|
E|---------------------------------------------------------------------------|

[Breakdown

e|-----------------------------------------------------------------------------------------------------|
B|-----------------------------------------------------------------------------------------------------|
G|-------------------------------------------------------------9--7--5--14/16-16-16-14-12--------------|
D|------------------------------------------12b14-12b14-12b------------------------------14------------|
A|----12b14-12b14-12b14--12b14-12b14-12b14-------------------------------------------------------------|
E|-----------------------------------------------------------------------------------------------------|

e|--------------------------------------------------------------------------|
B|-15--15-15--15----------------------15--15-15--15-------------------------|
G|-14--14-14--14-14-16-14-16-14-12----14--14-14--14-------------------------|
D|---------------------------------14---------------------------------------|
A|--------------------------------------------------------------------------|
E|--------------------------------------------------------------------------|

e|-------------------------------------------------------------------------------------------------------|
B|-------------------------------------------------------------------------------------------------------|
G|----------------------------------------------------------10-12-12-14-----9--7--5--14/16-16-16-14-12---|
D|------------------------------------------12b14-12b14-12b-------------------------------------------14-|
A|----12b14-12b14-12b14--12b14-12b14-12b14---------------------------------------------------------------|
E|-------------------------------------------------------------------------------------------------------|

e|--------------------------------------------------------------------------|
B|-15--15-15--15----------------------15--15-15--15-------------------------|
G|-14--14-14--14-14-16-14-16-14-12----14--14-14--14-------------------------|
D|---------------------------------14---------------------------------------|
A|--------------------------------------------------------------------------|
E|--------------------------------------------------------------------------|

[Outro]

e|-12-12-12-10-10-10-10-10-10/-15-15-17-17-15-15-17-15-----------------------|
B|-----------------------------------------------------17-17-15-15-17-17-15--|
G|-12-12-12-12-12-12-12-12-12/-17-17-17-17-17-17-17-17-17-17-17-17-17-17-15--|
D|---------------------------------------------------------------------------|
A|---------------------------------------------------------------------------|   
E|---------------------------------------------------------------------------|   
                                                                                  
e|---------------------------------------------------------------------------|   
B|-17-15-17-15-17-13---------------------------------------------------------|   
G|-------------------14-14-14-14-10-12-10-9-7-7-7-7-7------------------------|
D|---------------------------------------------------------------------------|
A|---------------------------------------------------------------------------|
E|---------------------------------------------------------------------------|

e|-12-12-12-10-10-10-10-10-10/-15-15-17-17-15-15-17-15-----------------------|
B|-----------------------------------------------------17-17-15-15-17-17-15--|
G|-12-12-12-12-12-12-12-12-12/-17-17-17-17-17-17-17-17-17-17-17-17-17-17-15--|
D|---------------------------------------------------------------------------|
A|---------------------------------------------------------------------------|   
E|---------------------------------------------------------------------------| 

e|---------------------------------------------------------------------------|
B|-15-15-15-15-15-15-15-15-15-15-15-15-15-15-15-15-15-15-15-15-15-15-15-15---|
G|---------------------------------------------------------------------------|
D|---------------------------------------------------------------------------|
A|---------------------------------------------------------------------------|
E|---------------------------------------------------------------------------|

  Very fast trembulo picking

e|-15-15-15-15-15-15-15-15-17-17-17-12-12-12-10-10-10-15-15-15-15-15-15-15-15-17-17-17-12-12-12--|
B|-----------------------------------------------------------------------------------------------|
G|-----------------------------------------------------------------------------------------------|
D|-----------------------------------------------------------------------------------------------|
A|-----------------------------------------------------------------------------------------------|
E|-----------------------------------------------------------------------------------------------|

e|-15-15-15-15-15-17-17-17-12-12-12-10-10-10-10-10-10-10-8-8-8-8-8-8-8-20-20-20-20-20-20-20-20---|
B|-----------------------------------------------------------------------------------------------|
G|-----------------------------------------------------------------------------------------------|
D|-----------------------------------------------------------------------------------------------|
A|-----------------------------------------------------------------------------------------------|
E|-----------------------------------------------------------------------------------------------|
            
Submit corrections

↑ Back to top | Tablatures and chords for acoustic guitar and electric guitar, ukulele, drums are parodies/interpretations of the original songs. You may use it for private study, scholarship, research or language learning purposes only