Home » T » Twenty One Pilots »

Twenty One Pilots - Stressed Out Live Bass

Artists:  A B C D E F G H I J K L M N O P Q R S T U V W X Y Z # 

Stressed Out Live Bass

(ver. 3) Click to play this song!
Twenty One Pilots
 Rating:
4.3/5 (26 votes)
                G|-----------------------------------------|
D|-----------------------------------------|
A|----/5--------------/5-------------------|  4x
E|-1------5--5-0---1------5--5-0-----------|
 
Wish we could turn back time, to the good old days...
G|-----------------------------------------------|
D|--15-14--7-------------------------------------|
A|-----------7------3--7--------33-77-------33-7-|
E|--------------5-3-------55-33--------55-33-----|
 
G|-----------------------------------------|
D|-----------------------------------------|
A|----/5--------------/55------------------|
E|-1------5--5-0---1------5--5-0-----------|
 
It'd be to my brother, 'cause we have the same nose...
G|-----------------------------------------|
D|-----------------------------------------|
A|---------3-3-7/11-----/5-----------------|
E|-5-5-3-3-----------1------5-5-0----------|
 
My name is blurryface and i care what you think...
G|-----------------------------------------|
D|-----------------------------------------|
A|----/5--------------/55------------------| 1x
E|-1------5--5-0---1------5--5-0-----------|
 
Wish we could turn back time, to the good old days...
G|-----------------------------------------------|
D|--15-14--7-------------------------------------|
A|-----------7------3--7--------33-77-------33-7-|
E|--------------5-3-------55-33--------55-33-----|
 
We used to play pretend, give each other different names,
G|-----------------------------------------|
D|-----------------------------------------|
A|---------3-3-7-7----------3-3-7----------|
E|-5-5-3-3----------5-5-3-3----------------|
            
Submit corrections

↑ Back to top | Tablatures and chords for acoustic guitar and electric guitar, ukulele, drums are parodies/interpretations of the original songs. You may use it for private study, scholarship, research or language learning purposes only