» » »

Twenty One Pilots - Tear In My Heart Bass

Artists:  A B C D E F G H I J K L M N O P Q R S T U V W X Y Z # 

Tear In My Heart Bass

(ver. 1) Click to play this song!
Twenty One Pilots
 Rating:
4/5 (2 votes)


 Tear In My Heart  lessons Tabs too difficult? Try these video lessons and learn fast
 
                
INTRO/VERSE
G|---------------------------------------------------------------------------|
D|---------------------------------------------------------------------------| 
A|-555-999-1010--------------------------------------------------------------|x4 
E|---------------------------------------------------------------------------|

 **those are 10's, not 1's and 0's.


PRE-CHORUS
G|---------------------------------------------------------------------------|
D|---------------------------------------------------------------------------|
A|---------------------------------------------------------------------------|
E|-5(x8)-17(x8)--------------------------------------------------------------|


CHORUS
G|---------------------------------------------------------------------------|
D|---------------------------------------------------------------------------|
A|-------------2(x12)-4444-5(x8)---------------------------------------------|
E|-3(x12)-5555-------------------5(x7)---------------------------------------|


INTRO/VERSE
G|---------------------------------------------------------------------------|
D|---------------------------------------------------------------------------| 
A|-555-999-1010--------------------------------------------------------------|x3 
E|---------------------------------------------------------------------------|

 **those are 10's, not 1's and 0's.


PRE-CHORUS
G|---------------------------------------------------------------------------|
D|---------------------------------------------------------------------------|
A|---------------------------------------------------------------------------|
E|-5(x8)-17(x8)--------------------------------------------------------------|


CHORUS
G|---------------------------------------------------------------------------|
D|---------------------------------------------------------------------------|
A|-------------2(x12)-4444-5(x8)---------------------------------------------|
E|-3(x12)-5555-------------------5(x7)---------------------------------------|

BRIDGE
G|---------------------------------------------------------------------------|
D|--------------------------5-5----------------------------------------------|
A|-5-5-5-5-5-5-5-50(x1)-5-5-----5-5-5-50(x8)---------------------------------|
E|-------------------------------------------55555555------------------------|


VERSE
G|---------------------------------------------------------------------------|
D|---------------------------------------------------------------------------|
A|-5-9-10--------------------------------------------------------------------|x3
E|---------------------------------------------------------------------------|


PRE-CHORUS
G|---------------------------------------------------------------------------|
D|---------------------------------------------------------------------------|
A|---------------------------------------------------------------------------|
E|-5(x8)-17(x8)--------------------------------------------------------------|


CHORUS
G|---------------------------------------------------------------------------|
D|---------------------------------------------------------------------------|
A|------2--4-5---------------------------------------------------------------|
E|-3--5--------5-------------------------------------------------------------|


CHORUS
G|---------------------------------------------------------------------------|
D|---------------------------------------------------------------------------|
A|-------------2(x12)-4444-5(x8)---------------------------------------------|x2
E|-3(x12)-5555-------------------5(x7)---------------------------------------|


CHORUS
G|---------------------------------------------------------------------------|
D|---------------------------------------------------------------------------|
A|------2--4-5-----5(let ring)-----------------------------------------------|
E|-3--5--------5-------------------------------------------------------------|            
Submit corrections



        Tear In My Heart  lessons Hard to play? Try these video lessons and learn fast Tear In My Heart  lessons
        
↑ Back to top | Tablatures and chords for acoustic guitar and electric guitar, ukulele, drums are parodies/interpretations of the original songs. You may use it for private study, scholarship, research or language learning purposes only