» » »

Twenty One Pilots - Oh Ms Believer Tabs

Artists:  A B C D E F G H I J K L M N O P Q R S T U V W X Y Z # 

Oh Ms Believer Tabs

(ver. 2) Click to play this song!
Twenty One Pilots
 Rating:
4.3/5 (23 votes)


 Oh Ms Believer lessons Tabs too difficult? Try these video lessons and learn fast
 
                e|---x---| 
B|---x---|
G|---x---| -Slap Strings
D|---x---|
A|---x---|
E|---x---|


[Intro verse]
(Oh Ms Believer, my pretty sleeper...)
e|------0-3-0------0---------------0-3------0-----------------------------|
B|-1--3-------3--1---3-1------1--3-----1--3---3---------------------------|
G|-----------------------2-0----------------------------------------------| 
D|------------------------------------------------------------------------|
A|------------------------------------------------------------------------|
E|------------------------------------------------------------------------|

(Your shaking shoulders...)                                                  
e|------0-3-0------0---------------0-3-------0----------------------------|
B|-1--3-------3--1---3-1------1--3-------1-3---3--------------------------|
G|-----------------------2-0-------------2--------------------------------| 
D|------------3------3---2----3-------------------------------------------|
A|-3------3--------------------------3------------------------------------|
E|---------------------------------------------3--------------------------|

[Verse]
(I will tell you I love you...)
e|---x---0-3-0---x---0------------x---0-3-x----x---0----x-----------------|
B|-1-x-3-------3-x-1---3-1------1-x-3-----x--1-x--3---3-x-----------------|
G|---x-----------x---------2-0----x-------x--2-x--------x-----------------| 
D|---x---------3-x-----3---2----3-x-------x----x--------x-----------------|
A|-3-x-----3-----x----------------x-----3-x----x--------x-----------------|
E|---x-----------x----------------x-------x----x------3-x-----------------|

(My nose and feet are...)
                                                             [OPTIONAL]
e|---x---0-3-0---x---0------------x---0-3-x----x---0----x-?---------------| [not part of the
B|-1-x-3-------3-x-1---3-1------1-x-3-----x--1-x--3---3-x-?--3---3--1-----|  meoldy but creates
G|---x-----------x---------2-0----x-------x--2-x--------x-?---------------|  a link to the next 
D|---x---------3-x-----3---2----3-x-------x----x--------x-?---------------|  part]
A|-3-x-----3-----x----------------x-----3-x----x--------x-?---------------|
E|---x-----------x----------------x-------x----x------3-x-?----3----------|

[Instrumental]
(Together we go... {echoey bit})
e|---------x------------------x----0---------x-------------------x--------|
B|-1---1---x----1-1--1----1---x-3----3---1---x-----1-1--1----1---x----3-1-|
G|---2---2-x--0---------2---2-x--------2---2-x---0---------2---2-x--0-----| 
D|-3-------x----2----2--------x------3-------x-----2----2--------x----0---|
A|---------x------------------x--------------x-------------------x--------|
E|---------x------------------x--------------x-------------------x--------|

[Chorus]
(We get colder..)
e|-------0-x---x---x-------0-x---x---x---------x---x---x-------0-x---x---x-|
B|-2-1-----x-1-x-3-x-2-1-----x-1-x-3-x-2-1---1-x-1-x-0-x-2-1-----x-1-x-3-x-|
G|-----2-2-x---x---x-----2-2-x---x---x-----2---x---x---x-----2-2-x---x---x-|
D|---3-----x---x---x---3-----x---x---x---3---3-x---x---x---3-----x---x---x-|
A|---------x-3-x---x---------x-3-x---x---------x-3-x---x---------x-3-x---x-|
E|---------x---x-3-x---------x---x-3-x---------x---x-3-x---------x---x-3-x-|

[Instrumental 2]

e|---------x------------------x---------------x-------------------x---------|
B|-1---1---x----1-1--1----1---x---3-1-1---1---x-----1-1--1----1---x----3-1--|
G|---2---2-x--0---------2---2-x-0-------2---2-x---0---------2---2-x--0------| 
D|-3-------x----2----2--------x---0---3-------x-----2----2--------x----0----|
A|---------x------------------x---------------x-------------------x---------|
E|---------x------------------x---------------x-------------------x---------|

[Verse]
(Oh Ms Believer, my pretty weeper...)
e|---x---0-3-0---x---0------------x---0-3-x----x---0----x-----------------|
B|-1-x-3-------3-x-1---3-1------1-x-3-----x--1-x--3---3-x-----------------|
G|---x-----------x---------2-0----x-------x--2-x--------x-----------------| 
D|---x---------3-x-----3---2----3-x-------x----x--------x-----------------|
A|-3-x-----3-----x----------------x-----3-x----x--------x-----------------|
E|---x-----------x----------------x-------x----x------3-x-----------------|

[Instrumental]
(Together we go... {echoey bit})
e|---------x------------------x----0---------x-------------------x--------|
B|-1---1---x----1-1--1----1---x-3----3---1---x-----1-1--1----1---x----3-1-|
G|---2---2-x--0---------2---2-x--------2---2-x---0---------2---2-x--0-----| 
D|-3-------x----2----2--------x------3-------x-----2----2--------x----0---|
A|---------x------------------x--------------x-------------------x--------|
E|---------x------------------x--------------x-------------------x--------|

[Chorus]
(We get colder..)
e|-------0-x---x---x-------0-x---x---x---------x---x---x-------0-x---x---x-|
B|-2-1-----x-1-x-3-x-2-1-----x-1-x-3-x-2-1---1-x-1-x-0-x-2-1-----x-1-x-3-x-|
G|-----2-2-x---x---x-----2-2-x---x---x-----2---x---x---x-----2-2-x---x---x-|
D|---3-----x---x---x---3-----x---x---x---3---3-x---x---x---3-----x---x---x-|
A|---------x-3-x---x---------x-3-x---x---------x-3-x---x---------x-3-x---x-|
E|---------x---x-3-x---------x---x-3-x---------x---x-3-x---------x---x-3-x-|

[Instrumental 2]
e|---------x------------------x---------------x-------------------x---------|
B|-1---1---x----1-1--1----1---x---3-1-1---1---x-----1-1--1----1---x----3-1--|
G|---2---2-x--0---------2---2-x-0-------2---2-x---0---------2---2-x--0------| 
D|-3-------x----2----2--------x---0---3-------x-----2----2--------x----0----|
A|---------x------------------x---------------x-------------------x---------|
E|---------x------------------x---------------x-------------------x---------|

[Outro]
e|------0-3-0------0---------------0-3------0-----------------------------|
B|-1--3-------3--1---3-1------1--3-----1--3---3---------------------------|
G|-----------------------2------------------------------------------------| x2 
D|------------------------------------------------------------------------|
A|------------------------------------------------------------------------|
E|------------------------------------------------------------------------|            
Submit corrections



        Oh Ms Believer lessons Hard to play? Try these video lessons and learn fast Oh Ms Believer lessons
        
↑ Back to top | Tablatures and chords for acoustic guitar and electric guitar, ukulele, drums are parodies/interpretations of the original songs. You may use it for private study, scholarship, research or language learning purposes only