» » »

Trigun - Trigun Tabs

Artists:  A B C D E F G H I J K L M N O P Q R S T U V W X Y Z # 

Trigun Tabs

(ver. 2) Click to play this song!
Trigun
 Rating:
4.6/5 (9 votes)

 Trigun lessons Tabs too difficult? Try these video lessons and learn fast
 
                (Theme)


STARTS AT (0:00)


Guitar 1 
e|----------------|--------------|--------------|------------|
B|----------------|--------------|--------------|------------|
G|----------------|--------------|--------------|------7-7---|
D|----------------|--------------|--------------|------7-7---|
A|--------------3~|-----------3--|------------3~|--3~--5-5---|
E|0-3-4-5-3-3-5---|-5-3-2-3-5----|3-4-5-3-4-5---|5---5-------|

e|----------------|--------------|--------------|----------------|
B|----------------|--------------|--------------|----------------|
G|----------------|--------------|--------------|----------------|
D|----------------|--------------|--------------|----------------|
A|--------------3~|-----------3--|------------3~|--3~--3~--3-----|
E|0-3-4-5-3-3-5---|-5-3-2-3-5----|3-4-5-3-4-5---|5---5---5--5-3-5|


STARTS AT (0:10)  (Guitar 2 comes in)


Guitar 1

e|----------------|--------------|--------------|------------|
B|----------------|--------------|--------------|------------|
G|----------------|--------------|--------------|------7-7---| x2
D|----------------|--------------|--------------|------7-7---|
A|--------------3~|-----------3--|------------3~|--3~--5-5---|
E|0-3-4-5-3-3-5---|-5-3-2-3-5----|3-4-5-3-4-5---|5---5-------|

e|----------------|--------------|--------------|----------------|
B|----------------|--------------|--------------|----------------|
G|----------------|--------------|--------------|----------------|
D|----------------|--------------|--------------|----------------|
A|--------------3~|-----------3--|------------3~|--3~--3~--3-----|
E|0-3-4-5-3-3-5---|-5-3-2-3-5----|3-4-5-3-4-5---|5---5---5--5-3-5|

Guitar 2

e|----------------|--------------|--------------|-----------|
B|----------------|--------------|--------------|-----------|
G|--------------5~|-----------5--|------------5~|--5~--7-7--|  x2
D|--5-6-7-5-5-7---|-7-5-4-5-7----|5-6-7-5-6-7---|7---7-7-7--|
A|7---------------|--------------|--------------|-----------|
E|----------------|--------------|--------------|-----------|

e|----------------|--------------|--------------|-----------------|
B|----------------|--------------|--------------|-----------------|
G|--------------5~|-----------5~-|------------5~|--5~--5~--5------|
D|--5-6-7-5-5-7---|-7-5-4-5-7----|5-6-7-5-6-7---|7---7---7---7-5-7|
A|7---------------|--------------|--------------|-----------------|
E|----------------|--------------|--------------|-----------------|

e|------------|
B|------------|
G|------------|
D|5h75h75h75h7|
A|------------|
E|------------|


STARTS AT (0:25)


Guitar 1

e|---------|---------|---------|
B|---------|---------|---------|
G|--5--7---|7-5--2---|--5--7---|
D|7-5--7---|7-5--2---|7-5--7---|
A|7-3--5---|5-3--0---|7-3--5---|
E|5--------|---------|5--------|

Guitar 2

e|---------|---------|---------|
B|---------|---------|---------|
G|--5--7---|7-5------|--5--7---|
D|7-5--7---|7-5--7---|7-5--7---|
A|7--------|-----7---|7--------|
E|---------|---------|---------|


STARTS AT (0:32)


Guitar 2

e|----------------|-------------|
B|----------------|-------------|
G|7b9r7p5-7b9r7p5-|------5------|
D|-------7-------7|-5-6-7-------|
A|----------------|-------7-5~--|
E|----------------|------------8|


STARTS AT (0:35)

Guitar 1
e|-----------|------------|------------|------------|
B|-----------|------------|------------|-----6----6-|
G|7-5-6-7-5-6|-7-5-------5|-6-7-5-6-7-5|-6-7-6--7-6-|  x3
D|7-5-6-7-5-6|-----7---7-5|-6-7-5-6-7-5|-6-7----7---|
A|-----------|-------5-7--|------------|------------|
E|-----------|------------|------------|------------|

e|-----------|------------|--------|
B|-----------|------------|--------|
G|--7-8-7-8-9|-7-8-9-7----|---7-8-9|
D|9-7-8-7-8-9|7-8------9--|-9-7-8-9|
A|9----------|-----------7|-9------|
E|-----------|------------|--------|


STARTS AT (0:52)


Guitar 2

e|-----------------------|-------------|-------------------------|
B|12b14-12-11-10-------10|-------------|-------------------------|
G|---------------12b14---|-12-9--------|-9-8b9-9-8b9-9-8b9-9-8b9-|
D|-----------------------|-----9-8-7---|-------------------------|
A|-----------------------|-----------10|-------------------------|
E|-----------------------|-------------|-------------------------|


STARTS AT (0:56)


Guitar 1 
e|----------------|--------------|--------------|------------|
B|----------------|--------------|--------------|------------|
G|----------------|--------------|--------------|------7-7---|
D|----------------|--------------|--------------|------7-7---|
A|--------------3~|-----------3--|------------3~|--3~--5-5---|
E|0-3-4-5-3-3-5---|-5-3-2-3-5----|3-4-5-3-4-5---|5---5-------|

e|----------------|--------------|--------------|----------------|
B|----------------|--------------|--------------|----------------|
G|----------------|--------------|--------------|----------------|
D|----------------|--------------|--------------|----------------|
A|--------------3~|-----------3--|------------3~|--3~--3~--3-----|
E|0-3-4-5-3-3-5---|-5-3-2-3-5----|3-4-5-3-4-5---|5---5---5--5-3-5|


STARTS AT (1:06)


Guitar 1

e|----------------|--------------|--------------|------------|
B|----------------|--------------|--------------|------------|
G|----------------|--------------|--------------|------7-7---|
D|----------------|--------------|--------------|------7-7---|
A|--------------3~|-----------3--|------------3~|--3~--5-5---|
E|0-3-4-5-3-3-5---|-5-3-2-3-5----|3-4-5-3-4-5---|5---5-------|

e|----------------|--------------|--------------|----------------|
B|----------------|--------------|--------------|----------------|
G|----------------|--------------|--------------|----------------|
D|----------------|--------------|--------------|----------------|
A|--------------3~|-----------3--|------------3~|--3~--3~--3-----|
E|0-3-4-5-3-3-5---|-5-3-2-3-5----|3-4-5-3-4-5---|5---5---5--5-3-5|

Guitar 2

e|----------------|--------------|--------------|-----------|
B|----------------|--------------|--------------|-----------|
G|--------------5~|-----------5--|------------5~|--5~--7-7--|  
D|--5-6-7-5-5-7---|-7-5-4-5-7----|5-6-7-5-6-7---|7---7-7-7--|
A|7---------------|--------------|--------------|-----------|
E|----------------|--------------|--------------|-----------|

e|----------------|--------------|--------------|-----------------|
B|----------------|--------------|--------------|-----------------|
G|--------------5~|-----------5~-|------------5~|--5~--5~--5------|
D|--5-6-7-5-5-7---|-7-5-4-5-7----|5-6-7-5-6-7---|7---7---7---7-5-7|
A|7---------------|--------------|--------------|-----------------|
E|----------------|--------------|--------------|-----------------|

e|------------|
B|------------|
G|------------|
D|5h75h75h75h7|
A|------------|
E|------------|


STARTS AT (1:16)



Guitar 1

e|---------|---------|---------|
B|---------|---------|---------|
G|--5--7---|7-5--2---|--5--7---|
D|7-5--7---|7-5--2---|7-5--7---|
A|7-3--5---|5-3--0---|7-3--5---|
E|5--------|---------|5--------|

Guitar 2

e|---------|---------|---------|
B|---------|---------|---------|
G|--5--7---|7-5------|--5--7---|
D|7-5--7---|7-5--7---|7-5--7---|
A|7--------|-----7---|7--------|
E|---------|---------|---------|


STARTS AT (1:24)
Guitar 2

e|----------------|-------------|--------|
B|----------------|-------------|--------|
G|7b9r7p5-7b9r7p5-|------5------|--------|
D|-------7-------7|-5-6-7-------|--7-----|
A|----------------|-------7-5~--|--7-----|
E|----------------|------------8|--5-----|
            
Submit corrections


        Trigun lessons Hard to play? Try these video lessons and learn fast Trigun lessons
        
↑ Back to top | Tablatures and chords for acoustic guitar and electric guitar, ukulele, drums are parodies/interpretations of the original songs. You may use it for private study, scholarship, research or language learning purposes only