Home » T » Trigun »

Trigun - Sandy Planet Tabs

Artists:  A B C D E F G H I J K L M N O P Q R S T U V W X Y Z # 

Sandy Planet Tabs

(ver. 1) Click to play this song!
Trigun
Suna No Hoshi(Sandy Planet)
Music Created by-TSUNEO IMAHORI

Hi! This tab is from TRIGUN- Its on the Second Donut (happy Pack) song #23 its 
called Suna No Hoshi(Sandy Planet). If U saw the series and/or know it, its a 
sad song but nice to listen to and fun to play. If you play the first 3 chords 
you'll know what it is if you've seen the series, and if you need to hear it again 
one episode its on is episode 24. (I don't want to add a spoiler as to where 
it is in the episode in case you haven't seen it but its in there.) Or of 
course download it.  If you have any questions or requests for tabs e-mail 




Part 1
-2--0--3---2--0--3------------2-----5---3---10----2-----0-------------
-3--3--3---3--3--3--------3------2----------------3-----0----3--------
-----------------------2-------------------------------------2--------
-------------------0--------------------------------------------------

Part 2
-2--0--3----2--0--3---------------2-------------------------------------
-3--3--3----3--3--3-----------3-------2---------0------2------0-----2---
---------------------------2-------------2------0------2------0-----2---
-----------------------0---------------------------0-------------0------

Part 3
-----------------------------------7--------------------9---5-------------
-2---3----5------7---7--------7--------7----7---7--------------2----5-----
-2---2----2------3---3-----3----------------3---3----9-----------------2--


Part 4
--2--0--0--0--0--5---8--8--0---0-----------5------------5------
--2--0--0--0--0--2---x--x--0---0---4--5--6---6----5--6----6----
---------------------8--8--------------------------------------

Part 5
--------------------------10------8--2--5--3--------------------
--3--5---7--8--7---5--3---10------9--3--3--0--------------------
--2--2---3--3--3---2--x-------3_5-------------7----5-----3------
-------=--------------0-----------------------3----2-----0------

Part 6
--------------2--0--------------2--0----------------------10--------
-3--0--3--0---3--0--3--0--3--0--3--0---3---0---5---0--10--10--4--0--
-2--0--2--0---------2--0--2--0---------2---0---4---0---9------5--0--
----0-----0------------0-----0--------------------------------------
----0-----0------------0-----0--------------------------------------
----0-----0------------0-----0--------------------------------------

Part 6 (cont)
--------------2--0--------------2--0--------
-3--0---3--0--3--0--3--0--3--0--3--0--3--0--
-2--0---2--0--------2--0--2--0--------2--0--
----0------0-----------0-----0-----------0--
--------------------------------------------
--------------------------------------------

Part 7
-------------12-=10--7--5-----
--7--10---x--12--10--7--5-----
--6---9---x-------------------
------------------------------
------------------------------
------------------------------


PART  8- For this part I wasnt too sure if it was 
finger picked (if it was it takes some skills) or 
if had two guitars.  I play it as it is below with 
a pick it sounds alright to me but if U must have 
perfection you can get two guitarists on it, or if
U are talented enough combine it, if you listen to 
the song you'll know what to do.

-7-7-8-7--------7--8---7--7------7--8--7---7--------7--10--7--8------8-7--8--8--
-------------7-----------------7-----------------7-----------------7------------
----------5-----------------5-----------------5------------------5--------------
-------3------------------3----------------3------------------3-----------------

ALMOST THERE!   Part 9
----10--8--8--6----------------------------------------------------------
--8--------------8--------------------------------------7--8--7--10--10--
--------------------7--8--7-------------------7----9----7--7--7---7---7--
-----------------------------8-----------7--9----------------------------
---------------------------------10--------------------------------------
-------------------------------------10----------------------------------

PART 10

--10--x--14--x--9--x--7--x---9--x--5--x--9--x--12--x--9--x--5--
--10--------------------------------------------------------5---


Congratulations you now know how to play the whole song just 
repeat parts one and 2 from here and end it with the two 
notes below:
 
------------------------------------
------------------------------------
--0---------------------------------
-------4----------------------------
------------------------------------
------------------------------------

I hope you understand it alright and if its not too accurate as 
I know it is feel free to give me hate mail or any suggestions 
ill gladly make use of them thanx for playing!        
            
Submit corrections

↑ Back to top | Tablatures and chords for acoustic guitar and electric guitar, ukulele, drums are parodies/interpretations of the original songs. You may use it for private study, scholarship, research or language learning purposes only