» » »

Trigun - Blue Funk Tabs

Artists:  A B C D E F G H I J K L M N O P Q R S T U V W X Y Z # 

Blue Funk Tabs

(ver. 1) Click to play this song!
Trigun
 Rating:
4/5 (4 votes)

 Blue Funk lessons Tabs too difficult? Try these video lessons and learn fast
 
                 Trigun
Talk about a long solo...

Intro
----------------- ------------- 
----------------- ------------- 
-3-3------------- --------3h5-- 
-----5-------5-5- -----3h5----- 
---------3h5----- -3h5--------- 
-------3--------- ------------- 

Distorted Guitar 
---------------------------------------------------- 
---------------------------------------------------- 
-3-3------------3--3-5----3-5--------------3-s10-10- 
-----5---3-5-5---------5------5---3-5-5--5---------- 
---------------------------------------------------- 
-------3------------------------3------------------- 

------------------------------- 
------------------------------- 
--9--------------10-10-9-9----- 
-10-10p8---8-10--10-10-8-8----- 
--------10------------------10- 
------------------------------- 

------------------------------------------------ 
------------------------------------------------ 
------------10-10----10-10-----s12-------------- 
----8----8--------12-------12------12-10-8------ 
-10---10------------------------------------10-- 
------------------------------------------------ 

 (50 sec)
-13-13-13-------------8s12--8s11-11------------------- 
----------15------------------------13---------------- 
-------------15------------------------13-13p11----13- 
----------------15-14---------------------------13---- 
------------------------------------------------------ 
------------------------------------------------------ 

-9-p8---9p8---------6-6---6p4-----------------------5- 
------9-----9----s6-----6-----6-4-2-------5-7b-5------ 
--------------8---------------------1s2-6--------7---- 
------------------------------------------------------ 
------------------------------------------------------ 
------------------------------------------------------ 

 (1:06)
-13-13----13-13-15s18-15s18-20-18-15-- 
-------15----------------------------- 
-------------------------------------- 
--------------------------------------  
-------------------------------------- 
-------------------------------------- 

-15p13----13-15-----13-13----13-13----13-13- 
-------15-------s15-------15-------15-------
----------------s15------------------------- 
-------------------------------------------- 
-------------------------------------------- 
-------------------------------------------- 

----13----15p13----------------------------------- 
-15----15-------15-13-11-------------------------- 
-------------------------12-----5-3-------------0- 
------------------------------5-----5p3---3-5-5-5- 
----------------------------------------5--------- 
-------------------------------------------------- 

 (1:34)
--------------------------------------------------------- 
------------------------------------11-11-11p10---------- 
---3-5-10-10--9--9------------------------------12-10---- 
-5-----------10-10-10p8----8-10--10-------------------10- 
------------------------10------------------------------- 
--------------------------------------------------------- 

-12-12-12-12----------------13-12------- 
-13-13-13-13-13p11----11s13-------13---- 
-------------------12----------------13- 
---------------------------------------- 
---------------------------------------- 
---------------------------------------- 

----20-20----20-20----20-20----20---------------- 
-------------------------------------21-18-16---- 
-17-------17-------17-------17----17----------15- 
------------------------------------------------- 
------------------------------------------------- 
------------------------------------------------- 

------------------------------------------------------- 
-13-13p11----11-13-13----------4-4-4-4-4-4-4----------- 
----------13-------------5---3-4-------------5p3---3-5- 
-----------------------5---5---5-----------------5----- 
------------------------------------------------------- 
------------------------------------------------------- 

------------------------13-11------------------- 
---------------11----11-------13p11----13-11---- 
-5-12-12-12-12----12----------------12-------12- 
------------------------------------------------ 
------------------------------------------------ 
------------------------------------------------ 

 (3:05)
------------------------------------- 
------------3s13-15p13--------------- 
---3--3----------------15-13--------- 
-5------5--------------------15-13--- 
----------5-------------------------- 
-------------------------------------
            
Submit corrections


        Blue Funk lessons Hard to play? Try these video lessons and learn fast Blue Funk lessons
        
↑ Back to top | Tablatures and chords for acoustic guitar and electric guitar, ukulele, drums are parodies/interpretations of the original songs. You may use it for private study, scholarship, research or language learning purposes only