» » »

Train - Play That Song Tabs

Artists:  A B C D E F G H I J K L M N O P Q R S T U V W X Y Z # 

Play That Song Tabs

(ver. 1) Click to play this song!
Train
 Rating:
4.3/5 (22 votes)

 Play That Song  lessons Tabs too difficult? Try these video lessons and learn fast
 
                [intro] 
 X4  C       [s]          F     [s]        Am       [s]         G      [s]       X4
e|-----------------------------------|-----------------------------------------|
B|-----1---------1---------0------0--|------1----------1---------3----------3--|
G|-----0---------0---------2------2--|------2----------2---------4----------4--|
D|-----------------------------------|-----------------------------------------|
A|---3-------------------------------|-----0-----------------------------------|
E|----------------------1------------|-------------------------3---------------|

[Chorus]
    C       [s]          F     [s]        Am       [s]         G        [s]
e|-----------------------------------|-----------------------------------------|
B|-----1---------1---------0------0--|------1----------1---------3----------3--|
G|-----0---------0---------2------2--|------2----------2---------4----------4--|
D|-----------------------------------|-----------------------------------------|
A|---3-------------------------------|-----0-----------------------------------|
E|----------------------1------------|-------------------------3---------------|

 C         F   Am           G
Play that song The one that makes me go 

   C       [s]          F     [s]        Am       [s]         G         [s]
e|-----------------------------------|-----------------------------------------|
B|-----1---------1---------0------0--|------1----------1---------3----------3--|
G|-----0---------0---------2------2--|------2----------2---------4----------4--|
D|-----------------------------------|-----------------------------------------|
A|---3-------------------------------|-----0-----------------------------------|
E|----------------------1------------|-------------------------3---------------|

 C         F    Am           G
all night long, The one that makes me think 

   C       [s]          F     [s]        Am       [s]         G         [s]
e|-----------------------------------|-----------------------------------------|
B|-----1---------1---------0------0--|------1----------1---------3----------3--|
G|-----0---------0---------2------2--|------2----------2---------4----------4--|
D|-----------------------------------|-----------------------------------------|
A|---3-------------------------------|-----0-----------------------------------|
E|----------------------1------------|-------------------------3---------------|

C   F   Am              G
of you, That's all you gotta do
 
   C       [s]          F     [s]        Am       [s]         G         [s]
e|-----------------------------------|-----------------------------------------|
B|-----1---------1---------0------0--|------1----------1---------3----------3--|
G|-----0---------0---------2------2--|------2----------2---------4----------4--|
D|-----------------------------------|-----------------------------------------|
A|---3-------------------------------|-----0-----------------------------------|
E|----------------------1------------|-------------------------3---------------|

 "Play it again so that it can blend into the Verse"

[Verse 1]
   C       [s]          F     [s]        Am       [s]         G         [s]
e|-----------------------------------|-----------------------------------------|
B|-----1---------1---------0------0--|------1----------1---------3----------3--|
G|-----0---------0---------2------2--|------2----------2---------4----------4--|
D|-----------------------------------|-----------------------------------------|
A|---3-------------------------------|-----0-----------------------------------|
E|----------------------1------------|-------------------------3---------------|

 C          F   Am                G
Hey, mister DJ when you gonna spin it

   C       [s]          F     [s]        Am       [s]         G         [s]
e|-----------------------------------|-----------------------------------------|
B|-----1---------1---------0------0--|------1----------1---------3----------3--|
G|-----0---------0---------2------2--|------2----------2---------4----------4--|
D|-----------------------------------|-----------------------------------------|
A|---3-------------------------------|-----0-----------------------------------|
E|----------------------1------------|-------------------------3---------------|

 C                  F               Am            G
My baby's favorite record she been waiting for a minute

   C       [s]          F     [s]        Am       [s]         G         [s]
e|-----------------------------------|-----------------------------------------|
B|-----1---------1---------0------0--|------1----------1---------3----------3--|
G|-----0---------0---------2------2--|------2----------2---------4----------4--|
D|-----------------------------------|-----------------------------------------|
A|---3-------------------------------|-----0-----------------------------------|
E|----------------------1------------|-------------------------3---------------|

     C               F               Am             G
She invited all her friends and I'm buying all the rounds

   C       [s]          F     [s]        Am       [s]         G         [s]
e|-----------------------------------|-----------------------------------------|
B|-----1---------1---------0------0--|------1----------1---------3----------3--|
G|-----0---------0---------2------2--|------2----------2---------4----------4--|
D|-----------------------------------|-----------------------------------------|
A|---3-------------------------------|-----0-----------------------------------|
E|----------------------1------------|-------------------------3---------------|

            C     F            Am                  G
And they're all dolled up, DJ please don't let me down

[Pre-Chorus]
  C                 F                        Am               G        
e|-----------------------------------|------------------------------------------|
B|-----1----------------1------------|-----------1----------------3-------------|
G|----2--22------------2-22----------|----------2-22-------------4--44----------|
D|-----------------------------------|------------------------------------------|
A|-3---------------------------------|--------0---------------------------------|
E|-------------------1---------------|-------------------------3----------------|

 C              F               Am             G
When you gonna play that song, When you gonna earn that pay

  C                 F                        Am               G        
e|-----------------------------------|------------------------------3-----------|
B|-----1----------------1------------|--------1--1--------------- 3-------------|
G|----2--22------------2-22----------|--------2--2--------------4---------------|
D|-----------------------------------|------------------------------------------|
A|-3---------------------------------|--------0--0------------------------------|
E|-------------------1---------------|-------------------------3----------------|

 C              F              Am          G
When you gonna play that song and make my day

[Chorus 2]
    C       [s]          F     [s]        Am       [s]         G        [s]
e|-----------------------------------|-----------------------------------------|
B|-----1---------1---------0------0--|------1----------1---------3----------3--|
G|-----0---------0---------2------2--|------2----------2---------4----------4--|
D|-----------------------------------|-----------------------------------------|
A|---3-------------------------------|-----0-----------------------------------|
E|----------------------1------------|-------------------------3---------------|

 C         F   Am           G
Play that song The one that makes me go 

   C       [s]          F     [s]        Am       [s]         G         [s]
e|-----------------------------------|-----------------------------------------|
B|-----1---------1---------0------0--|------1----------1---------3----------3--|
G|-----0---------0---------2------2--|------2----------2---------4----------4--|
D|-----------------------------------|-----------------------------------------|
A|---3-------------------------------|-----0-----------------------------------|
E|----------------------1------------|-------------------------3---------------|

 C         F    Am           G
all night long, The one that makes me think 

   C       [s]          F     [s]        Am       [s]         G         [s]
e|-----------------------------------|-----------------------------------------|
B|-----1---------1---------0------0--|------1----------1---------3----------3--|
G|-----0---------0---------2------2--|------2----------2---------4----------4--|
D|-----------------------------------|-----------------------------------------|
A|---3-------------------------------|-----0-----------------------------------|
E|----------------------1------------|-------------------------3---------------|

C   F   Am              G
of you, That's all you gotta do

   C       [s]          F     [s]        Am       [s]         G         [s]
e|-----------------------------------|-----------------------------------------|
B|-----1---------1---------0------0--|------1----------1---------3----------3--|
G|-----0---------0---------2------2--|------2----------2---------4----------4--|
D|-----------------------------------|-----------------------------------------|
A|---3-------------------------------|-----0-----------------------------------|
E|----------------------1------------|-------------------------3---------------|
 
"Play it again so that it can blend into the second part of the chorus 2
"
    C       [s]          F     [s]        Am       [s]         G        [s]
e|-----------------------------------|-----------------------------------------|
B|-----1---------1---------0------0--|------1----------1---------3----------3--|
G|-----0---------0---------2------2--|------2----------2---------4----------4--|
D|-----------------------------------|-----------------------------------------|
A|---3-------------------------------|-----0-----------------------------------|
E|----------------------1------------|-------------------------3---------------|

 C         F   Am           G

Play that song The one that makes me stay 

   C       [s]          F     [s]        Am       [s]         G         [s]
e|-----------------------------------|-----------------------------------------|
B|-----1---------1---------0------0--|------1----------1---------3----------3--|
G|-----0---------0---------2------2--|------2----------2---------4----------4--|
D|-----------------------------------|-----------------------------------------|
A|---3-------------------------------|-----0-----------------------------------|
E|----------------------1------------|-------------------------3---------------|

 C        F    Am           G
 out'til dawn, the one that makes me go

   C       [s]          F     [s]        Am       [s]         G         [s]
e|-----------------------------------|-----------------------------------------|
B|-----1---------1---------0------0--|------1----------1---------3----------3--|
G|-----0---------0---------2------2--|------2----------2---------4----------4--|
D|-----------------------------------|-----------------------------------------|
A|---3-------------------------------|-----0-----------------------------------|
E|----------------------1------------|-------------------------3---------------|

C  F   Am            G
Oooh, thats all you gotta do

   C       [s]          F     [s]        Am       [s]         G         [s]
e|-----------------------------------|-----------------------------------------|
B|-----1---------1---------0------0--|------1----------1---------3----------3--|
G|-----0---------0---------2------2--|------2----------2---------4----------4--|
D|-----------------------------------|-----------------------------------------|
A|---3-------------------------------|-----0-----------------------------------|
E|----------------------1------------|-------------------------3---------------|

"Play it again so that it can blend into the verse 2"

[Verse 2]

   C       [s]          F     [s]        Am       [s]         G         [s]
e|-----------------------------------|-----------------------------------------|
B|-----1---------1---------0------0--|------1----------1---------3----------3--|
G|-----0---------0---------2------2--|------2----------2---------4----------4--|
D|-----------------------------------|-----------------------------------------|
A|---3-------------------------------|-----0-----------------------------------|
E|----------------------1------------|-------------------------3---------------|

 C       F       Am              G
Hey, Mr. Guitar, When you gonna strum it

   C       [s]          F     [s]        Am       [s]         G         [s]
e|-----------------------------------|-----------------------------------------|
B|-----1---------1---------0------0--|------1----------1---------3----------3--|
G|-----0---------0---------2------2--|------2----------2---------4----------4--|
D|-----------------------------------|-----------------------------------------|
A|---3-------------------------------|-----0-----------------------------------|
E|----------------------1------------|-------------------------3---------------|

 C                      F                   Am                  G
My girl just heard this song and you should play it 'cause she loves it

   C       [s]          F     [s]        Am       [s]         G         [s]
e|-----------------------------------|-----------------------------------------|
B|-----1---------1---------0------0--|------1----------1---------3----------3--|
G|-----0---------0---------2------2--|------2----------2---------4----------4--|
D|-----------------------------------|-----------------------------------------|
A|---3-------------------------------|-----0-----------------------------------|
E|----------------------1------------|-------------------------3---------------|

     C                  F               Am             G
Can you get me off the hook, get them fingers picking now

   C       [s]          F     [s]        Am       [s]         G         [s]
e|-----------------------------------|-----------------------------------------|
B|-----1---------1---------0------0--|------1----------1---------3----------3--|
G|-----0---------0---------2------2--|------2----------2---------4----------4--|
D|-----------------------------------|-----------------------------------------|
A|---3-------------------------------|-----0-----------------------------------|
E|----------------------1------------|-------------------------3---------------|

            C                 F             Am                  G
I'll throw some money in your cup, Mister, please don't let me down

[Pre-Chorus 2]
  C                 F                        Am               G        
e|-----------------------------------|------------------------------------------|
B|-----1----------------1------------|-----------1----------------3-------------|
G|----2--22------------2-22----------|----------2-22-------------4--44----------|
D|-----------------------------------|------------------------------------------|
A|-3---------------------------------|--------0---------------------------------|
E|-------------------1---------------|-------------------------3----------------|

 C              F                   Am             G
When you gonna play that song, now, Why you gotta hesitate

  C                 F                        Am               G        
e|-----------------------------------|------------------------------3-----------|
B|-----1----------------1------------|--------1--1--------------- 3-------------|
G|----2--22------------2-22----------|--------2--2--------------4---------------|
D|-----------------------------------|------------------------------------------|
A|-3---------------------------------|--------0--0------------------------------|
E|-------------------1---------------|-------------------------3----------------|

 C              F              Am          G
When you gonna play that song and make my day, she said

[Chorus 2]
    C       [s]          F     [s]        Am       [s]         G        [s]
e|-----------------------------------|-----------------------------------------|
B|-----1---------1---------0------0--|------1----------1---------3----------3--|
G|-----0---------0---------2------2--|------2----------2---------4----------4--|
D|-----------------------------------|-----------------------------------------|
A|---3-------------------------------|-----0-----------------------------------|
E|----------------------1------------|-------------------------3---------------|

 C         F   Am           G
Play that song The one that makes me go 

   C       [s]          F     [s]        Am       [s]         G         [s]
e|-----------------------------------|-----------------------------------------|
B|-----1---------1---------0------0--|------1----------1---------3----------3--|
G|-----0---------0---------2------2--|------2----------2---------4----------4--|
D|-----------------------------------|-----------------------------------------|
A|---3-------------------------------|-----0-----------------------------------|
E|----------------------1------------|-------------------------3---------------|

 C         F    Am           G
all night long, The one that makes me think 

   C       [s]          F     [s]        Am       [s]         G         [s]
e|-----------------------------------|-----------------------------------------|
B|-----1---------1---------0------0--|------1----------1---------3----------3--|
G|-----0---------0---------2------2--|------2----------2---------4----------4--|
D|-----------------------------------|-----------------------------------------|
A|---3-------------------------------|-----0-----------------------------------|
E|----------------------1------------|-------------------------3---------------|

C   F   Am              G
of you, That's all you gotta do

   C       [s]          F     [s]        Am       [s]         G         [s]
e|-----------------------------------|-----------------------------------------|
B|-----1---------1---------0------0--|------1----------1---------3----------3--|
G|-----0---------0---------2------2--|------2----------2---------4----------4--|
D|-----------------------------------|-----------------------------------------|
A|---3-------------------------------|-----0-----------------------------------|
E|----------------------1------------|-------------------------3---------------|
 
"Play it again so that it can blend into the second part of the chorus 2
"
    C       [s]          F     [s]        Am       [s]         G        [s]
e|-----------------------------------|-----------------------------------------|
B|-----1---------1---------0------0--|------1----------1---------3----------3--|
G|-----0---------0---------2------2--|------2----------2---------4----------4--|
D|-----------------------------------|-----------------------------------------|
A|---3-------------------------------|-----0-----------------------------------|
E|----------------------1------------|-------------------------3---------------|

 C         F   Am           G

Play that song The one that makes me stay 

   C       [s]          F     [s]        Am       [s]         G         [s]
e|-----------------------------------|-----------------------------------------|
B|-----1---------1---------0------0--|------1----------1---------3----------3--|
G|-----0---------0---------2------2--|------2----------2---------4----------4--|
D|-----------------------------------|-----------------------------------------|
A|---3-------------------------------|-----0-----------------------------------|
E|----------------------1------------|-------------------------3---------------|

 C        F    Am           G
 out'til dawn, the one that makes me go

   C       [s]          F     [s]        Am       [s]         G         [s]
e|-----------------------------------|-----------------------------------------|
B|-----1---------1---------0------0--|------1----------1---------3----------3--|
G|-----0---------0---------2------2--|------2----------2---------4----------4--|
D|-----------------------------------|-----------------------------------------|
A|---3-------------------------------|-----0-----------------------------------|
E|----------------------1------------|-------------------------3---------------|

C  F   Am            G
Oooh, thats all you gotta do

[Final Chorus/ Ending 3]

[Chorus 2]  
    C                F                     Am            G       
e|-----------------------------------|---------------------------------|
B|---1---------------0---------------|-----1--------------3------------|
G|---0---------------2---------------|-----2--------------4------------|
D|-----------------------------------|---------------------------------|
A|---3-------------------------------|-----0---------------------------|
E|-------------------1---------------|--------------------3------------|

 C         F   Am           G
Play that song The one that makes me go 

   C                F                     Am            G       
e|-----------------------------------|---------------------------------|
B|---1---------------0---------------|-----1--------------3------------|
G|---0---------------2---------------|-----2--------------4------------|
D|-----------------------------------|---------------------------------|
A|---3-------------------------------|-----0---------------------------|
E|-------------------1---------------|--------------------3------------|
 C         F    Am           G
all night long, The one that makes me think 

   C                F                     Am            G         C
e|-----------------------------------|---------------------------------0|
B|---1---------------0---------------|-----1--------------3-----------1-|
G|---0---------------2---------------|-----2--------------4----------0--|
D|-----------------------------------|----------------------------------|
A|---3-------------------------------|-----0-----------------------3----|
E|-------------------1---------------|--------------------3-------------|
C   F   Am              G     C
of you, That's all you gotta do             
Submit corrections


        Play That Song  lessons Hard to play? Try these video lessons and learn fast Play That Song  lessons
        
↑ Back to top | Tablatures and chords for acoustic guitar and electric guitar, ukulele, drums are parodies/interpretations of the original songs. You may use it for private study, scholarship, research or language learning purposes only