» » »

Train - If Its Love Tabs

Artists:  A B C D E F G H I J K L M N O P Q R S T U V W X Y Z # 

If Its Love Tabs

(ver. 1) Click to play this song!
Train
 Rating:
4.4/5 (17 votes)

 If Its Love  lessons Tabs too difficult? Try these video lessons and learn fast
 
                [Intro]

e|--x-x-x-x-x-x-x-x-x-x-x-----|
B|--x-x-x-x-x-x-x-x-x-x-x-----|
G|--x-x-x-x-x-x-x-0-0-0-0-----| x2
D|--0-0-0-0-x-x-x-2-2-3-2-----|
A|--2-2-3-2-x-x-x-3-3-3-3-----|
E|--3-3-3-3-x-x-x-x-x-x-x-----|

[Verse 1]

e|--x-x-x-x-x-x-x-x-x-x-x-----|
B|--x-x-x-x-x-x-x-x-x-x-x-----|
G|--x-x-x-x-x-x-x-0-0-0-0-----| x2
D|--0-0-0-0-x-x-x-2-2-3-2-----|
A|--2-2-3-2-x-x-x-3-3-3-3-----|
E|--3-3-3-3-x-x-x-x-x-x-x-----|
 When everybody else is getting out of bed...

e|-3---------------0------------3--------------0--------------------0-------------|
B|-3---------------1------------3--------------1--------------------3-------------|
G|-0---------------0------------0--------------0--------------------0-------------|
D|-0---------------2------------0--------------2--------------------4-------------|
A|-2---------------3------------2--------------3--------------------5-------------|
E|-3---------------3------------3-------------------------------------------------|
  But I'm afraid...stories of...happy endings...you are the greatest thing....

[Chorus]

e|-3------3-----3------------------------------0-------------0--------------------|
B|-3------3-----3------------------------------1-------------3--------------------|
G|-0------0-----0------------------------------0-------------0--------------------|
D|-0------2-----2------------------------------2-------------4--------------------| x2
A|-2------0-----2------------------------------3-------------5--------------------|
E|-3------2-----0------------------------------3-------------5--------------------|
  If its love...decide that its forever no one else can do it better.


[Verse 2]

e|--x-x-x-x-x-x-x-x-x-x-x-----|
B|--x-x-x-x-x-x-x-x-x-x-x-----|
G|--x-x-x-x-x-x-x-0-0-0-0-----| x2
D|--0-0-0-0-x-x-x-2-2-3-2-----|
A|--2-2-3-2-x-x-x-3-3-3-3-----|
E|--3-3-3-3-x-x-x-x-x-x-x-----|
 Took a loan on a house I own...

e|-3---------------0------------3-----------------0-----------------------------0-------------|
B|-3---------------1------------3-----------------1-----------------------------3-------------|
G|-0---------------0------------0-----------------0-----------------------------0-------------|
D|-0---------------2------------0-----------------2-----------------------------4-------------|
A|-2---------------3------------2-----------------3-----------------------------5-------------|
E|-3---------------3------------3-------------------------------------------------------------|
  cellphones...be glad we ..on a spinning ball.I love you from your toes to your face....


[Chorus]

e|-3------3-----3------------------------------0-------------0--------------------|
B|-3------3-----3------------------------------1-------------3--------------------|
G|-0------0-----0------------------------------0-------------0--------------------|
D|-0------2-----2------------------------------2-------------4--------------------| x2
A|-2------0-----2------------------------------3-------------5--------------------|
E|-3------2-----0------------------------------3-------------5--------------------|
  If its love...decide that its forever no one else can do it better.

[BRIDGE]

e|--------------------------------------------|
B|------0-------0---------0--------0----------|
G|----0--0-----0--0-----0---0----0---0--------|
D|--------0--------0-------------------0------|  x2
A|--------------------0--------3--------------|
E|--0--------3--------------------------------|
 Love, love. Got to have something to keep us together...


e|------------------------------3---------------3------0--------------------0----|
B|--1----------1----------------3---------------3------1--------------------1----|
G|--2----------0----------------0---------------0------2--------------------0----|
D|--2----------2----------------0---------------2------2--------------------2----|
A|--0----------3----------------2---------------0------0--------------------3----|
E|-------------3----------------3---------------2---------------------------3----|
...move in...you've been. Cause everybody has a past...over we'll do it all over   AGAIN (VERSE)

[REPEAT VERSE 1] Stagger strum

e|--x-x-x-x-x-x-x-x-x-x-x-----|
B|--x-x-x-x-x-x-x-x-x-x-x-----|
G|--x-x-x-x-x-x-x-0-0-0-0-----| x2
D|--0-0-0-0-x-x-x-2-2-3-2-----|
A|--2-2-3-2-x-x-x-3-3-3-3-----|
E|--3-3-3-3-x-x-x-x-x-x-x-----|
 When everybody else is getting out of bed...

 [Chorus]

e|-3------3-----3------------------------------0-------------0--------------------|
B|-3------3-----3------------------------------1-------------3--------------------|
G|-0------0-----0------------------------------0-------------0--------------------|
D|-0------2-----2------------------------------2-------------4--------------------| x2
A|-2------0-----2------------------------------3-------------5--------------------|
E|-3------2-----0------------------------------3-------------5--------------------|
  If its love...decide that its forever no one else can do it better.   

[BRIDGE] 'Love, love" bit again and end on a strummed G chord. 

e|--------------------------------------------|
B|------0-------0---------0--------0----------|
G|----0--0-----0--0-----0---0----0---0--------|
D|--------0--------0-------------------0------|  x2
A|--------------------0--------3--------------|
E|--0--------3--------------------------------|
 Love, love. Got to have something to keep us together...            
Submit corrections


        If Its Love  lessons Hard to play? Try these video lessons and learn fast If Its Love  lessons
        
↑ Back to top | Tablatures and chords for acoustic guitar and electric guitar, ukulele, drums are parodies/interpretations of the original songs. You may use it for private study, scholarship, research or language learning purposes only