» » »

Train - Drops Of Jupiter Tabs

Artists:  A B C D E F G H I J K L M N O P Q R S T U V W X Y Z # 

Drops Of Jupiter Tabs

(ver. 1) Click to play this song!
Train
 Rating:
4.3/5 (29 votes)

 Drops Of Jupiter lessons Tabs too difficult? Try these video lessons and learn fast
 
                [Intro]
     C        G              F
e|-----------------------------------------------------|
B|-----------------------------------------------------|
G|-----------------------------------------------------|
D|2~----2-3--------------------------------------------|
A|3~--3-3-3--5~---5---5-7--3~----2---2---2h3------3-5--|
D|-----------5~-5---5-5-5--3~--3---3---3------3---3-3--|
 
[Verse] x3
     C        G              F
e|-----------------------------------------------------|
B|-----------------------------------------------------|
G|-----------------------------------------------------|
D|2~----2-3--------------------------------------------|
A|3~--3-3-3--5~---5---5-7--3~----2---2---2h3------3-5--|
D|-----------5~-5---5-5-5--3~--3---3---3------3---3-3--|

[Chorus] x2
          G        A             D                      F                      C
e|-------------------------------------------------------------------------------------------|
B|-------------------------------------------------------------------------------------------|
G|----------------------------------------------------------------------5-5-5-5-5-5-5-5-5-5--|
D|-5-5-5-5-5-5-5-5/7--0-0-0-0-0-0-0-0-0-0-0-0--3-3-3-3-3-3-3-3-3-3-3-3--5-5-5-5-5-5-5-5-5-5--|
A|-5-5-5-5-5-5-5-5/7--0-0-0-0-0-0-0-0-0-0-0-0--3-3-3-3-3-3-3-3-3-3-3-3--3-3-3-3-3-3-3-3-3-3--|
D|-5-5-5-5-5-5-5-5/7--0-0-0-0-0-0-0-0-0-0-0-0--3-3-3-3-3-3-3-3-3-3-3-3-----------------------| 
            
Submit corrections


        Drops Of Jupiter lessons Hard to play? Try these video lessons and learn fast Drops Of Jupiter lessons
        
↑ Back to top | Tablatures and chords for acoustic guitar and electric guitar, ukulele, drums are parodies/interpretations of the original songs. You may use it for private study, scholarship, research or language learning purposes only