Home » T » Tomahawk »

Tomahawk - God Hates A Coward Tabs

Artists:  A B C D E F G H I J K L M N O P Q R S T U V W X Y Z # 

God Hates A Coward Tabs

(ver. 1) Click to play this song!
Tomahawk
 Rating:
4.3/5 (6 votes)
                --Song: God Hates A Coward
---Tab: #1

out easily enough by listening to the song.


~~~~~~

All guitars in standard tuning

Whole song can be played and sounds just fine with one guitar, but chorus has
multiple guitar overlays and the bass part is included here just in case.

~~~~~~

Verse 1

Guitar 1
1st:-------------------------------------------------[-(1st)-------[-(2nd)--|
2nd:-------------------------------------------------[-------------[--------|
3rd:-------------------------------------------------[-------------[--------|
4th:-6-6---7-7---8-8---4-4---------------------------[-------------[--------|
5th:-4-4---4-4---4-4---4-4-7-7-7-7-6-6---7-7---8-8---[4-4-2-2-2-2--[-4------|
6th:-----------------------5-5-5-5-4-4---4-4---4-4---[4-4-0-0-0-0--[-4------|

(Play first riff, then go to "1st", then play first riff again, go to "2nd")

Guitar 2/bass
1st:-------------------------------------------------|
2nd:-------------------------------------------------|
3rd:-------------------------------------------------|
4th:-------------------------------------------------|
5th:-4-4-5/4-4-4/7-4/5/4/5/4-4-4-5/4-4-4/7-4---------|
6th:-----------------------------------------5-5-5-5-|

1st:-------------------------------------------------|
2nd:-------------------------------------------------|
3rd:-------------------------------------------------|
4th:-------------------------------------------------|
5th:-------------------------------------------------|
6th:-4-4-5/4-4-4/7-4-4-5-5-5-5-4-4-5/4-4-4-4-0-0-0-0-|(1st time, back to first)

1st:-------------------------------------------|
2nd:-------------------------------------------|
3rd:-------------------------------------------|
4th:-------------------------------------------|
5th:-------------------------------------------|
6th:-4-4-5/4-4-4/7-4-4-5-5-5-5-4-4-5/4-4-4-4-4-|(2nd time, into chorus)

(Play Guitar 2's part twice.)

~~~~~~

Chorus

Guitar 1
1st:----------------------------------------------------|
2nd:----------------------------------------------------|
3rd:----------------------------------------------------|
4th:-6-----7-----8-----4--------------------------------|
5th:-4-----4-----4-----4--7--6-----7-----8-----4-----2--|
6th:----------------------5--4-----4-----4-----4-----0--|x2

Guitar 2/bass
1st:-------------------------------------------------|
2nd:-------------------------------------------------|
3rd:-------------------------------------------------|
4th:-------------------------------------------------|
5th:-4-4-5/4-4-4/7-4/5/4/5/4-4-4-5/4-4-4/7-4---------|
6th:-----------------------------------------5-5-5-5-|

1st:-------------------------------------------------|
2nd:-------------------------------------------------|
3rd:-------------------------------------------------|
4th:-------------------------------------------------|
5th:-------------------------------------------------|
6th:-4-4-5/4-4-4/7-4-4-5-5-5-5-4-4-5/4-4-4-4-0-0-0-0-|

(Both parts played twice.)

~~~~~~

Bridge

Guitar 1/Guitar 2
1st:-----------|
2nd:-----------|
3rd:-----------|
4th:-----------|
5th:-4-4--4-4--|
6th:-2-2--2-2--|x8

Guitar 1/Guitar 2
1st:----
2nd:----
3rd:-1--
4th:-2--
5th:-3--
6th:----

(Play first riff 8 times, then end on the second one.)

~~~~~~

Verse 2

Guitar 1
1st:----------------------------------------------------|
2nd:----------------------------------------------------|
3rd:----------------------------------------------------|
4th:-6-6---7-7---8-8---4-4------------------------------|
5th:-4-4---4-4---4-4---4-4-7-7-7-7-6-6---7-7---8-8---4--|
6th:-----------------------5-5-5-5-4-4---4-4---4-4---4--|

Guitar 2/bass
1st:-------------------------------------------------|
2nd:-------------------------------------------------|
3rd:-------------------------------------------------|
4th:-------------------------------------------------|
5th:-4-4-5/4-4-4/7-4/5/4/5/4-4-4-5/4-4-4/7-4---------|
6th:-----------------------------------------5-5-5-5-|

1st:-------------------------------------------|
2nd:-------------------------------------------|
3rd:-------------------------------------------|
4th:-------------------------------------------|
5th:-------------------------------------------|
6th:-4-4-5/4-4-4/7-4-4-5-5-5-5-4-4-5/4-4-4-4-4-|

(Same as first but shorter.)

~~~~~~
            
Submit corrections

↑ Back to top | Tablatures and chords for acoustic guitar and electric guitar, ukulele, drums are parodies/interpretations of the original songs. You may use it for private study, scholarship, research or language learning purposes only