Home » T » Tomahawk »

Tomahawk - God Hates A Coward Bass

Artists:  A B C D E F G H I J K L M N O P Q R S T U V W X Y Z # 

God Hates A Coward Bass
Version #1
Tomahawk


Copy URL
--Song: God Hates A Coward
standard tuning

verse
/                                                    \
| |-------------------------------------------------| |
| |-------------------------------------------------| |
| |-4-4-5/4-4-4/5-4-4-4-4-4-4-4-5/4-4-4/5-4---------| |
| |-----------------------------------------5-5-5-5-| |
|                                                     |
| |-------------------------------------------------| |
| |-------------------------------------------------| |
| |-------------------------------------------------| |
| |-4-4-5/4-4-4/5-4-4-4-4-4-4-4-5/4-4-4/5-4-0-0-0-0-| |
\                                                    /

chorus
/                                                    \
| |-------------------------------------------------| |
| |-------------------------------------------------| |
| |-4-4-5/4-4-4/5-4-4-4-4-4-4-4-5/4-4-4/5-4---------| |
| |-----------------------------------------5-5-5-5-| |
|                                                     |
| |-------------------------------------------------| |
| |-------------------------------------------------| |
| |-------------------------------------------------| |
| |-4-4-5/4-4-4/5-4-4-4-4-4-4-4-5/4-4-4/5-4-0-0-0-0-| |
\                                                    /

Bridge

|-----------|
|-----------|
|-----------|
|-2-2--2-2--|

~~~~~~~~~~~~~~
song order
~~~~~~~~~~~~~~
verse x4
chorus x2
bridge x8
verse x2
chorus x2
~~~~~~~~~~~~~~
            
Submit corrections

↑ Back to top | Tablatures and chords for acoustic guitar and electric guitar, ukulele, drums are parodies/interpretations of the original songs. You may use it for private study, scholarship, research or language learning purposes only