» » »

Tokyo Police Club - Wait Up (Boots Of Danger) Bass

Artists:  A B C D E F G H I J K L M N O P Q R S T U V W X Y Z # 

Wait Up (Boots Of Danger) Bass

(ver. 1) Click to play this song!
Tokyo Police Club
 Rating:
4/5 (4 votes)
                
The rhythms I used are depicted by the spacing of the notes in the tab.
Some of the rhythms are not exactly as they are in the song, but you can makes the 
adjustments to the beat as you see fit.

(Verse)

G|----------------------------------------------------------------------|
D|-3-3-3-3--3--3-3--3-3-------------------------------------------------|
A|-----------------------3-3-3-3--3--3-3--3-3--5-5-5-5--5--5-5--5-5-----|
E|----------------------------------------------------------------------|

G|----------------------------------------------------------------------|
D|-------------3-3-3-3--3-----------------------------------------------|
A|-5-5-5-5--5--------------3-3-3-3--3--3-3--3-3--5-5-5-5--5-------------|
E|----------------------------------------------------------------------|

G|----------------------------------------------------------------------|
D|-3-3-3-3--3--8-8-8-8--8--8-8--8-8-------------------------------------|
A|-----------------------------------8-8-8-8--8--8-8--8-8---------------|
E|----------------------------------------------------------------------|

(Chorus: "Wait Up!")

G|----------------------------------------------------------------------|
D|-8--8----8-8--8--8----8-8--10--10----10-10----------------------------|
A|--------------------------------------------8--8----8-8---------------|
E|----------------------------------------------------------------------|
(x4)

(Chorus "ooo")

G|----------------------------------------------------------------------|
D|----------------------------------------------------------------------|
A|-1--1-1--1-1--1--1-1--1-1--3--3-3--3-3--------------------------------|
E|----------------------------------------1--1-1--1-1-------------------|
(x2)

(Bridge)

G|----------------------------------------------------------------------|
D|-5---------7---------3------------5-----------7------------3----------|
A|----------------------------------------------------------------------|
E|----------------------------------------------------------------------|

G|----------------------------------------------------------------------|
D|----------------------------------------------------------------------|
A|----------------------------------------------------------------------|
E|-8--8-8--8-8--8-8-----------------------------------------------------|

(Outro Chorus)

G|----------------------------------------------------------------------|
D|----------------------0--3p0------------------------------------------|
A|-1--1--1--1--0h3p0h3----------3p0-------------------------------------|
E|----------------------------------------------------------------------|
(x2)

G|----------------------------------------------------------------------|
D|-8--7--5--3-----------0--3p0------------------------------------------|
A|-------------0h3p0h3----------3p0-------------------------------------|
E|----------------------------------------------------------------------|
(x2)

*This is my original tab, and may not be copied without my permission.
            
Submit corrections

↑ Back to top | Tablatures and chords for acoustic guitar and electric guitar, ukulele, drums are parodies/interpretations of the original songs. You may use it for private study, scholarship, research or language learning purposes only