» » »

Tim Mcgraw - Seventeen Tabs

Artists:  A B C D E F G H I J K L M N O P Q R S T U V W X Y Z # 

Seventeen Tabs

(ver. 3) Click to play this song!
Tim Mcgraw
 Rating:
4/5 (4 votes)

 Seventeen lessons Tabs too difficult? Try these video lessons and learn fast
 
                Tim McGraw - Seventeen (intro)



***********************************************************************

\   =   slide down                          /   =   slide up

h   =   hammer-on                           p   =   pulloff

***********************************************************************


The first guitar part you'll hear is this:


E----------3------5\----------------------|
B--0-------3------5\------1---------------|
G--0----------------------0-----5-5---5---|
D--0----------------------------5-5h7-5---|
A---5\---------0-0-----3-3---5/7----------|
E-------3-3-------------------------------|

It repeats throughout the intro in one form or another...very similar
to the one above though.


This is played over it occasionally by another guitar:


E---7p5-7p5-7p5----|
B--8---8---8---5---|
G------------------|
D------------------|
A------------------|
E------------------|

            
Submit corrections


        Seventeen lessons Hard to play? Try these video lessons and learn fast Seventeen lessons
        
↑ Back to top | Tablatures and chords for acoustic guitar and electric guitar, ukulele, drums are parodies/interpretations of the original songs. You may use it for private study, scholarship, research or language learning purposes only