» » »

Tim Mcgraw - Live Like You Were Dying Tabs

Artists:  A B C D E F G H I J K L M N O P Q R S T U V W X Y Z # 

Live Like You Were Dying Tabs

(ver. 2) Click to play this song!
Tim Mcgraw
 Rating:
4/5 (4 votes)

 Live Like You Were Dying lessons Tabs too difficult? Try these video lessons and learn fast
 
                (Outro)
e---------------------------------------------------
B----------------11b-11br------10-11b-11b-11~br\----
G-8~/9~--11~/12~----------11h13---------------------
D---------------------------------------------------
A---------------------------------------------------
E---------------------------------------------------

e----------------------------15-17-15\-------------15-17-15\-
B---11/12-13-12h13/15--15h17-----------15h17-15h17-----------
G-11---------------------------------------------------------
D------------------------------------------------------------
A------------------------------------------------------------
E------------------------------------------------------------
               Begins to fade out
e-17------------------12!-------17p16p15--------------
B----15-12/17\15--12!------7!-----------h17p16p15-----
G-----------------------------7!-----------------h16--
D-----------------------------------------------------
A-----------------------------------------------------
E-----------------------------------------------------

b  Bend 
br Bend Return
~  Vibrato
!  Harmonic
h  Hammer On
p  Pull Off
/  Slide Up
\  Slide Down

This is my first attempt at a solo so let me
know what you think. I have only been play-
ing the electric guitar for about a week.
            
Submit corrections


        Live Like You Were Dying lessons Hard to play? Try these video lessons and learn fast Live Like You Were Dying lessons
        
↑ Back to top | Tablatures and chords for acoustic guitar and electric guitar, ukulele, drums are parodies/interpretations of the original songs. You may use it for private study, scholarship, research or language learning purposes only