» » »

Tim Mcgraw - Down On The Farm Tabs

Artists:  A B C D E F G H I J K L M N O P Q R S T U V W X Y Z # 

Down On The Farm Tabs

(ver. 1) Click to play this song!
Tim Mcgraw
 Rating:
4/5 (4 votes)

 Down On The Farm lessons Tabs too difficult? Try these video lessons and learn fast
 
                Tim McGraw:   Down On The Farm
Intro: Bb  Used as fill throughout song
E[-----------------------------------------------------------------------------]
B[-----------------------------------------------------------------------------]
G[-------5/10b----10b-9b-8b-7b-8-10--------------------------------------------]
D[-------3/8b----8-------------------------8v\---------------------------------]
A[-----------------------------------------------------------------------------]
E[-----------------------------------------------------------------------------]

Riff to get into chorus
E[-----------------------------------------------------------------------------]
B[-----------------------------------------------------------------------------]
G[-----------------------------------------------------------------------------]
D[----------------------8------------------------------------------------------]
A[------1-1-3-3-4-4-5-5/6------------------------------------------------------]
E[-----------------------------------------------------------------------------]

End Solo:  Bb             Eb         Bb          F   Repeated
E[-------------------------------------------------------------------------]
B[-------------------------------------------------------------------------]
G[--5/10b----10b-9b-8b-8v-8v-7b-8-10----7h8p7--10v-10v10/12-10-9v-8v-------]
D[--3/8b----8------------------------8-8-----8-----------------------10-8v-]
A[-------------------------------------------------------------------------]
E[-------------------------------------------------------------------------]

E[-------------------------------------------------------------------------------------]
B[-----------------------------------------Fades Out-----------------------------------]
G[-----10v-10v-10v-10v-10p8---------8/10-10-8-h10p8-8h10-10p8-----8\7h8p7------8-8-7---]
D[-8h10------------------(4x’s)-8h10-------------------------8h10--------8-8h10-----8v-]
A[-------------------------------------------------------------------------------------]
E[-------------------------------------------------------------------------------------]
            
Submit corrections


        Down On The Farm lessons Hard to play? Try these video lessons and learn fast Down On The Farm lessons
        
↑ Back to top | Tablatures and chords for acoustic guitar and electric guitar, ukulele, drums are parodies/interpretations of the original songs. You may use it for private study, scholarship, research or language learning purposes only