Home » T » Tim Hughes »

Tim Hughes - Here I Am To Worship Tabs

Artists:  A B C D E F G H I J K L M N O P Q R S T U V W X Y Z # 

Here I Am To Worship Tabs

(ver. 3) Click to play this song!
Tim Hughes
e|---------------------------------------------------------------------------|
B|---------------------------------------------------------------------------|
G|----------0----------------------0------------------------0----------------|
D|--4----4-------2----2-----4-----------4----2-0-----4--4-------2---2--4---0-|
A|--0------------0-------------------------------2---0----------0------------|
E|---------------------------------0-------------0-------------------------3-|
  light of the world you stepped down into darkness opened my eyes let me see
e|---------------------------------------------------------------------------|
B|---------------------------------------------------------------------------|
G|---------0---------------0---------------------0---------------------------|
D|-4--4---------2---2--4-------4-2-0------4----4-----2----2-----4---0--------|
A|-0------------0---------------------2---0----------0-----------------------|
E|-------------------------0----------0-----------------------------3--------|
  beauty that makes this heart adore you hope of a life spent with you 
e|---------------------------------------------------------------------------|
B|---------------------------------------------------------------------------|
G|-----------0-------------------0----------------------0--------------------|
D|-----------2--4--4--2--4--4--------4--4--2--2----2-------4--4--2--4---4----|
A|-------2------0--------5--5-----------------4------------------------------|
E|------------------------------------------------------------------2--------|
chorus: so here i am to worship here i am to bow down here i am to say that  
e|---------------------------------------------------------------------------|
B|---------------------------------------------------------------------------|
G|------2-----------0-------------------0--------------------0---------------|
D|--4------0---0--------4--4--2--4--4-------4--4--2--2-2--------4--4--2------|
A|------------------2------------5--5----------------4-----------------------|
E|-------------3-------------------------------------------------------------|
  your my God your all together lovely all together worthy all together 
e|---------------------------------------------------------------------------|
B|---------------------------------------------------------------------------|
G|-----------2---------------------------------------------------------------|
D|-4--4--------0-------------------------------------------------------------|
A|---------------------------------------------------------------------------|
E|-2-------------------------------------------------------------------------|
  wonderful to me (repeat verse)
e|---------------------------------------------------------------------------|
B|---------------------------------------------------------------------------|
G|-----------------2----0-------------------------2-0------------------------|
D|--4---2-2----4------------4--2--0--0--2--2---4---------4---2-0----4---2-2--|
A|-----------------------------------------4---------------------------------|
E|------3-2----2------------------3------------2---------3--------------3-2--|
  i'll never know how much it costs to see my sin upon that cross i'll never 
e|---------------------------------------------------------------------------|
B|---------------------------------------------------------------------------|
G|------2---0--------------------------2--0----------------------------------|
D|--4------------4-2--0---0--2---2--4---------4--2--0------------------------|
A|---------------------------4-----------------------------------------------|
E|--2-----------------3-------------2---------3------------------------------|
  know how much it costs to see my sin upon that cross (repeat)            
Submit corrections

↑ Back to top | Tablatures and chords for acoustic guitar and electric guitar, ukulele, drums are parodies/interpretations of the original songs. You may use it for private study, scholarship, research or language learning purposes only