Home » T » Tim Hughes »

Tim Hughes - Here I Am To Worship Tabs

Artists:  A B C D E F G H I J K L M N O P Q R S T U V W X Y Z # 

Here I Am To Worship Tabs

(ver. 4) Click to play this song!
Tim Hughes
[Verse, Repeat x2]
     D           A           G                   G
e|---2---2---3---0---0---2---3---3---2---0---------------|
B|---3-----------2-----------0---------------3---0-------|
G|---2-----------2-----------0-------------------0-------|
D|---0-----------------------0-------------------0-------|
A|---------------0---------------------------------------|
E|-------------------------------------------------------|

     D           A          G6/B   
e|---2---2---3---0---0---2-------------------------------|
B|---3-----------2-----------3---------------------------|
G|---2-----------2-----------0---------------------------|
D|---0-----------------------0-------0-------------------|
A|---------------0-----------2---2-----------------------|
E|-------------------------------------------------------|

[Chorus]
     G                 D   D                   A   A                     D
e|---3---2---2---0h2---2---2---3---2---2---0---0---0---3---2---2---0h2---2---|
B|---0-----------------3---3-------------------2---2---------------------3---|
G|---0-----------------2---2-------------------2---2---------------------2---|
D|---0-----------------0---0---------------------------------------------0---|
A|---------------------------------------------0---0-------------------------|
E|---------------------------------------------------------------------------|

     D           G6/B G                     D   D                   A   A
e|---2---2---5--------3---3---2---2---0h2---2---2---3---2---2---0---0---0----|
B|---3------------3---0---------------------3---3-------------------2---2----|
G|---2------------0---0---------------------2---2-------------------2---2----|
D|---0------------0---0---------------------0---0----------------------------|
A|----------------2-------------------------------------------------0---0----|
E|---------------------------------------------------------------------------|

                       D   D           G6/B
e|---3---2---2---0h2---2---2---2----5----------------------------------------|
B|---------------------3---3------------3------------------------------------|
G|---------------------2---2------------0------------------------------------|
D|---------------------0---0------------0------------------------------------|
A|--------------------------------------2------------------------------------|
E|---------------------------------------------------------------------------|

[Bridge, Repeat x2]
         A   A   D       G          G6/B
e|-------0---0---2---5---3---2---0-----------------|   
B|---3---2---2---3-------0-----------3-------------|    
G|-------2---2---2-------0-----------0-------------|    
D|---------------0-------0-----------0-------------|  
A|-------0---0-----------------------2-------------|    
E|-------------------------------------------------|                      
Submit corrections

↑ Back to top | Tablatures and chords for acoustic guitar and electric guitar, ukulele, drums are parodies/interpretations of the original songs. You may use it for private study, scholarship, research or language learning purposes only