Home » T » Tim Hughes »

Tim Hughes - Here I Am To Worship Tabs

Artists:  A B C D E F G H I J K L M N O P Q R S T U V W X Y Z # 

Here I Am To Worship Tabs

(ver. 2) Click to play this song!
Tim Hughes
Here I Am To Worship: by Tim Hughes

This is my 1st tab.  this is for the people who haate chord charts or are just too lazy 
them like me. this is a great song and is perfect for new guitarists. i hope you it and 
fun.

Capoed on the 2nd fret.

Verse 1:
   D            A                            Em
|--2------------0-----------|----------------0------------|
|--3------------2-----------|----------------0------------|
|--2------------2-----------|----------------0------------|
|--0------------2-----------|----------------2------------|
|---------------0-----------|----------------2------------|
|---------------------------|----------------0------------|
  Light of the world,        You stepped down into darkness

   D                   A                 G
|--2-------------------0----|------------3----------------|
|--3-------------------2----|------------0----------------|
|--2-------------------2----|------------0----------------|
|--0-------------------2----|------------0----------------|
|----------------------0----|------------2----------------|
|---------------------------|------------3----------------|
  Opened      my      eyes,   let   me   see

   D                    A                   Em
|--2--------------------0---|---------------0-------------|
|--3--------------------2---|---------------0-------------|
|--2--------------------2---|---------------0-------------|
|--0--------------------2---|---------------2-------------|
|-----------------------0---|---------------2-------------|
|---------------------------|---------------0-------------|
   Beauty    that   made this       heart     adore    you

   D                   A                 G
|--2-------------------0----|------------3----------------|
|--3-------------------2----|------------0----------------|
|--2-------------------2----|------------0----------------|
|--0-------------------2----|------------0----------------|
|----------------------0----|------------2----------------|
|---------------------------|------------3----------------|
   Hope   of   a  life   spent     with      you

Chorus:
   G                    D                         A
|--3--------------------2---|---------------------0-------|
|--0--------------------3---|---------------------2-------|
|--0--------------------2---|---------------------2-------|
|--0--------------------0---|---------------------2-------|
|--2------------------------|---------------------0-------|
|--3------------------------|-----------------------------|
 So here  I  am  to  worship, Here  I  am  to  bow  down

                        D                             G
|-----------------------2---|-------------------------3---|
|-----------------------3---|-------------------------0---|
|-----------------------2---|-------------------------0---|
|-----------------------0---|-------------------------0---|
|---------------------------|-------------------------2---|
|---------------------------|-------------------------3---|
  Here   I   am   to   say    that    You're    my   God

                         D                          A
|------------------------2--|-----------------------0-----|
|------------------------3--|-----------------------2-----|
|------------------------2--|-----------------------2-----|
|------------------------0--|-----------------------2-----|
|---------------------------|-----------------------0-----|
|---------------------------|-----------------------------|
And you're altogether lovely,     Altogether      worthy

                     D                              G
|--------------------2------|-----------------------3-----|
|--------------------3------|-----------------------0-----|
|--------------------2------|-----------------------0-----|
|--------------------0------|-----------------------0-----|
|---------------------------|-----------------------2-----|
|---------------------------|-----------------------3-----|
Altogether         wonderful            to          me

Verse 2:
   D            A                            Em
|--2------------0-----------|----------------0------------|
|--3------------2-----------|----------------0------------|
|--2------------2-----------|----------------0------------|
|--0------------2-----------|----------------2------------|
|---------------0-----------|----------------2------------|
|---------------------------|----------------0------------|
  King  of all days,         oh   so   highly   exalted

   D                   A                 G
|--2-------------------0----|------------3----------------|
|--3-------------------2----|------------0----------------|
|--2-------------------2----|------------0----------------|
|--0-------------------2----|------------0----------------|
|----------------------0----|------------2----------------|
|---------------------------|------------3----------------|
  Glorious     in      heaven          above

   D                 A                 Em
|--2-----------------0------|----------0------------------|
|--3-----------------2------|----------0------------------|
|--2-----------------2------|----------0------------------|
|--0-----------------2------|----------2------------------|
|--------------------0------|----------2------------------|
|---------------------------|----------0------------------|
   Humbly   you   came   to   the   earth   you   created,

   D              A                      G
|--2--------------0---------|------------3----------------|
|--3--------------2---------|------------0----------------|
|--2--------------2---------|------------0----------------|
|--0--------------2---------|------------0----------------|
|-----------------0---------|------------2----------------|
|---------------------------|------------3----------------|
   All   for   love's   sake   became   poor.

Chorus:
   G                    D                         A
|--3--------------------2---|---------------------0-------|
|--0--------------------3---|---------------------2-------|
|--0--------------------2---|---------------------2-------|
|--0--------------------0---|---------------------2-------|
|--2------------------------|---------------------0-------|
|--3------------------------|-----------------------------|
 So here  I  am  to  worship, Here  I  am  to  bow  down

                        D                             G
|-----------------------2---|-------------------------3---|
|-----------------------3---|-------------------------0---|
|-----------------------2---|-------------------------0---|
|-----------------------0---|-------------------------0---|
|---------------------------|-------------------------2---|
|---------------------------|-------------------------3---|
  Here   I   am   to   say    that    You're    my   God

                         D                          A
|------------------------2--|-----------------------0-----|
|------------------------3--|-----------------------2-----|
|------------------------2--|-----------------------2-----|
|------------------------0--|-----------------------2-----|
|---------------------------|-----------------------0-----|
|---------------------------|-----------------------------|
And you're altogether lovely,     Altogether      worthy

                     D                              G
|--------------------2------|-----------------------3-----|
|--------------------3------|-----------------------0-----|
|--------------------2------|-----------------------0-----|
|--------------------0------|-----------------------0-----|
|---------------------------|-----------------------2-----|
|---------------------------|-----------------------3-----|
Altogether         wonderful            to          me

Coda:
            A          D               G
|-----------0----------2----|----------3------------------|
|-----------2----------3----|----------0------------------|
|-----------2----------2----|----------0------------------|
|-----------2----------0----|----------0------------------|
|-----------0---------------|----------2------------------|
|---------------------------|----------3------------------|
   I’ll   never      know     how     much     it     cost

         A            D         G
|--------0------------2-----|---3-------------------------|
|--------2------------3-----|---0-------------------------|
|--------2------------2-----|---0-------------------------|
|--------2------------0-----|---0-------------------------|
|--------0------------------|---2-------------------------|
|---------------------------|---3-------------------------|
   To    see    my   sins     upon     that     Cross
(x2)

   D                                               A
|--2------------------------|----------------------0------|
|--3------------------------|----------------------2------|
|--3------------------------|----------------------2------|
|--0------------------------|----------------------2------|
|---------------------------|----------------------0------|
|---------------------------|-----------------------------|
   Call      upon     the     name    of    the   Lord

                         Bm    G
|------------------------2--|--3--------------------------|
|------------------------3--|--0--------------------------|
|------------------------4--|--0--------------------------|
|------------------------0--|--0--------------------------|
|---------------------------|--2--------------------------|
|---------------------------|--3--------------------------|
   And        be       saved
(x2)

Chorus:
   G                    D                         A
|--3--------------------2---|---------------------0-------|
|--0--------------------3---|---------------------2-------|
|--0--------------------2---|---------------------2-------|
|--0--------------------0---|---------------------2-------|
|--2------------------------|---------------------0-------|
|--3------------------------|-----------------------------|
 So here  I  am  to  worship, Here  I  am  to  bow  down

                        D                             G
|-----------------------2---|-------------------------3---|
|-----------------------3---|-------------------------0---|
|-----------------------2---|-------------------------0---|
|-----------------------0---|-------------------------0---|
|---------------------------|-------------------------2---|
|---------------------------|-------------------------3---|
  Here   I   am   to   say    that    You're    my   God

                         D                          A
|------------------------2--|-----------------------0-----|
|------------------------3--|-----------------------2-----|
|------------------------2--|-----------------------2-----|
|------------------------0--|-----------------------2-----|
|---------------------------|-----------------------0-----|
|---------------------------|-----------------------------|
And you're altogether lovely,     Altogether      worthy

                     D                              G
|--------------------2------|-----------------------3-----|
|--------------------3------|-----------------------0-----|
|--------------------2------|-----------------------0-----|
|--------------------0------|-----------------------0-----|
|---------------------------|-----------------------2-----|
|---------------------------|-----------------------3-----|
Altogether         wonderful            to          me
            
Submit corrections

↑ Back to top | Tablatures and chords for acoustic guitar and electric guitar, ukulele, drums are parodies/interpretations of the original songs. You may use it for private study, scholarship, research or language learning purposes only