» » »

Thrice - Dust Of Nations Tabs

Artists:  A B C D E F G H I J K L M N O P Q R S T U V W X Y Z # 

Dust Of Nations Tabs

(ver. 2) Click to play this song!
Thrice
 Rating:
4/5 (4 votes)

 Dust Of Nations lessons Tabs too difficult? Try these video lessons and learn fast
 
                ----------------------------------------------------------------------------
                             Of Dust And Nations - Thrice
----------------------------------------------------------------------------

Tuning: C G C F A D (Drop C)

Notes:
-Interesting tapping lick in the chorus and outro. When sliding from fret 3 or 5,
don't feel obligated to arrive at fret 7 or 9 before tapping again. It sounds fairly
random in the recording, so if you go higher or lower, it will still sound correct.
-Notice the subtle change at the end of the tapping lick in chorus two, last measure.

Legend:
p= pull-off
h= hammer-on
t= tap (with picking hand)
~= let ring
/= slide up

Intro pt.1: (Guitar 1, x8)
|-------10-----------------------------------------------------------------|
|-0-7-8----8-7p0-7p0-7p0-7p0-7p0-(slow down on eighth time)----------------|
|--------------------------------------------------------------------------|
|--------------------------------------------------------------------------|
|--------------------------------------------------------------------------|
|--------------------------------------------------------------------------|

Intro pt.2 (Faster): (Guitar 1 repeat Intro)

Intro pt.2 (Faster): (Guitar 2, implied tonality)
|--------------------------------------------------------------------------|
|--------------------------------------------------------------------------|
|--------------------------------------------------------------------------|
|-9-9-9-9--9-9-7-7--9-9-9-9-9-9-9-9--2-2-2-2-2-2-2-2-2-2-2-2-2-2-2-2-------|
|-9-9-9-9--9-9-7-7--9-9-9-9-9-9-9-9--2-2-2-2-2-2-2-2-2-2-2-2-2-2-2-2-------|
|-9-9-9-9--9-9-7-7--9-9-9-9-9-9-9-9--2-2-2-2-2-2-2-2-2-2-2-2-2-2-2-2-------|

Verse: (Guitar 1 repeat Intro)

Verse: (Guitar 2, implied tonality)
|---------------|---------------|
|---------------|---------------|
|-4~------------|---------------|
|-4~-(let fade)-|-2~------------|
|-2~------------|-2~-(let fade)-|
|---------------|-2~------------|

Chorus 1: (Guitar 1, x2)
|-t15p0h3/(7)-t15p0h3/(7)-t15p0-t14p0t14p0t14p0t14p0-|-t14p0h3/(7)-t14p0h3/|
|----------------------------------------------------|---------------------|
|----------------------------------------------------|---------------------|
|----------------------------------------------------|---------------------|
|----------------------------------------------------|---------------------|
|----------------------------------------------------|---------------------|

|(7)-t14p0-t12p0t12p0t12p0t12p0-|-t12p0h5/(9)-t12p0h5/(9)-t12p0-t10p0t10p0-|
|-------------------------------|------------------------------------------|
|-------------------------------|------------------------------------------|
|-------------------------------|------------------------------------------|
|-------------------------------|------------------------------------------|
|-------------------------------|------------------------------------------|

|t10p0t10p0-|-t10p0-9h10p0h9h10p0h9h10p0h9h10p0-9p0-|
|-----------|---------------------------------------|
|-----------|---------------------------------------|
|-----------|---------------------------------------|
|-----------|---------------------------------------|
|-----------|---------------------------------------|

Chorus 1: (Guitar 2)
|--------------------------------------------------------------------------|
|--------------------------------------------------------------------------|
|-----------------------------------7-7-7-7-7-7-7-7------------------------|
|-5-5-5-5-5-5-5-5--9-9-9-9-9-9-9-9--7-7-7-7-7-7-7-7--7-7-7-7-7-7-7-7-------|
|-5-5-5-5-5-5-5-5--9-9-9-9-9-9-9-9--5-5-5-5-5-5-5-5--7-7-7-7-7-7-7-7-------|
|-5-5-5-5-5-5-5-5--9-9-9-9-9-9-9-9-------------------7-7-7-7-7-7-7-7-------|

|--------------------------------------------------------------------------|
|--------------------------------------------------------------------------|
|------------------4-4-4-4-4-4-4-4-----------------------------------------|
|-2-2-2-2-2-2-2-2--4-4-4-4-4-4-4-4--4-4-4-4-4-4-4-4--5-5-5-5-5-5-5-5-------|
|-2-2-2-2-2-2-2-2--2-2-2-2-2-2-2-2--4-4-4-4-4-4-4-4--5-5-5-5-5-5-5-5-------|
|-2-2-2-2-2-2-2-2-------------------4-4-4-4-4-4-4-4--5-5-5-5-5-5-5-5-------|

Verse 2: (Guitar 2 for first part, implied tonality)
|------------------------|----------------|-----------------|
|------------------------|----------------|-----------------|
|-4~--------4~--------2~-|-4~--4~--4~--2~-|---------4~------|
|-4~---2~---4~---0~---2~-|-4~--4~--4~--2~-|-2~--2~--4~--4~--|
|-2~---2~---2~---0~---0~-|-2~--2~--2~--0~-|-2~--2~--2~--4~--|
|------2~--------0~------|----------------|-2~--2~------4~--|

Verse 2: (Guitar 1 comes in now with intro lick, slightly modified)
|-------10----------------------------|-------10----------------------------|
|-0-7-8----8-7p0-7p0-7p0-7p0-7p0------|-0-7-8----8-7p0-7p0-7p0--------------|
|---------------------------------(x3)|------------------------7p0-4p0------|
|-------------------------------------|-------------------------------------|
|-------------------------------------|-------------------------------------|
|-------------------------------------|-------------------------------------|

Chorus 2: (Guitar 1)
|-t15p0h3/(7)-t15p0h3/(7)-t15p0-t14p0t14p0t14p0t14p0-|-t14p0h3/(7)-t14p0h3/|
|----------------------------------------------------|---------------------|
|----------------------------------------------------|---------------------|
|----------------------------------------------------|---------------------|
|----------------------------------------------------|---------------------|
|----------------------------------------------------|---------------------|

|(7)-t14p0-t12p0t12p0t12p0t12p0-|-t12p0h5/(9)-t12p0h5/(9)-t12p0-t10p0t10p0-|
|-------------------------------|------------------------------------------|
|-------------------------------|------------------------------------------|
|-------------------------------|------------------------------------------|
|-------------------------------|------------------------------------------|
|-------------------------------|------------------------------------------|

|t10p0t10p0-|-t10p0-9h10p0h9h10p0h9h10p0h9h10p0-9p0-|
|-----------|---------------------------------------|
|-----------|---------------------------------------|
|-----------|---------------------------------------|
|-----------|---------------------------------------|
|-----------|---------------------------------------|

|-t15p0h3/(7)-t15p0h3/(7)-t15p0-t14p0t14p0t14p0t14p0-|-t14p0h3/(7)-t14p0h3/|
|----------------------------------------------------|---------------------|
|----------------------------------------------------|---------------------|
|----------------------------------------------------|---------------------|
|----------------------------------------------------|---------------------|
|----------------------------------------------------|---------------------|

|(7)-t14p0-t12p0t12p0t12p0t12p0-|-t12p0h5/(9)-t12p0h5/(9)-t12p0-t10p0t10p0-|
|-------------------------------|------------------------------------------|
|-------------------------------|------------------------------------------|
|-------------------------------|------------------------------------------|
|-------------------------------|------------------------------------------|
|-------------------------------|------------------------------------------|

|t10p0t10p0-|-t10p0-9h10p0h9h10p0h9h15p0h9h17p0-9p0-|
|-----------|---------------------------------------|
|-----------|---------------------------------------|
|-----------|---------------------------------------|
|-----------|---------------------------------------|
|-----------|---------------------------------------|

Chorus 2: (Guitar 2, repeat Chorus 1)

Outro: (Guitar 1 only, repeat Chorus 2 x8, drums come in on 4th time)
            
Submit corrections


        Dust Of Nations lessons Hard to play? Try these video lessons and learn fast Dust Of Nations lessons
        
↑ Back to top | Tablatures and chords for acoustic guitar and electric guitar, ukulele, drums are parodies/interpretations of the original songs. You may use it for private study, scholarship, research or language learning purposes only