» » »

Thrice - Firebreather Tabs

Artists:  A B C D E F G H I J K L M N O P Q R S T U V W X Y Z # 

Firebreather Tabs

(ver. 2) Click to play this song!
Thrice
 Rating:
4/5 (4 votes)

 Firebreather lessons Tabs too difficult? Try these video lessons and learn fast
 
                
First tab!  Please let me know how it is - rate/e-mail suggestions, thanks!

b - bend
r - release
s - slide
v - vibrato

Tuning: C G C F A D (Drop C)



Intro
|--------------------------------------------------------------------------|
|--------------------------------------------------------------------------|
|--------------------------------------------------------------------------|
|--------------------------------------------------------------------------|
|-0-2-2-0-2--0-02-0-02-(x4)------------------------------------------------|
|-0-2-2-0-2--0-02-0-02-----------------------------------------------------|

Bass comes in, then alternates with guitar here...
|--------------------------------------------------------------------------|
|--------------------------------------------------------------------------|
|--------------------------------------------------------------------------|
|----------------(1's and 0's)---------------------------------------------|
|-0-6-6s3-5s0-0-0-3s0-10----(x2)-------------------------------------------|
|-0-6-6s3-5s0-0-0-3s0-10---------------------------------------------------|

Chorus - Guitar 1 
|--------------------------------------------------------------------------|
|--------------------------------------------------------------------------|
|--------------------------------------------------------------------------|
|-(figure out strumming pattern)-------------------------------------------|
|-2--------5-----0---------2--------5-----50-50----------------------------|
|-2--------5-----0---------2--------5-----50-50----------------------------|

Repeat Intro First Riff

Chorus 2 - Guitar 1
|--------------------------------------------------------------------------|
|--------------------------------------------------------------------------|
|--------------------------------------------------------------------------|
|-(figure out strumming pattern)-----------(first ending)--(second ending)-|
|-2--------5----5000-5000------2--------5-(x2)-50-50----------50000000-----|
|-2--------5----5000-5000------2--------5------50-50----------50000000-----|

Bridge/Outro - Guitar 1
|--------------------------------------------------------------------------|
|--------------------------------------------------------------------------|
|--------------------------------------------------------------------------|
|--------------------------------------------------------------------------|
|-5555555000-5555555000-2222222000-2222222000-(repeat as necessary)--------|
|-5555555000-5555555000-2222222000-2222222000------------------------------|

Bridge - Guitar 2 (after x2 above)
|--------10-10--------------10-10------------------------------------------|
|--------------14-----------------14br------------14-----------------(x2)--|
|---11-9----------11---11-9------------11-9-11v-9----11-9-11-11-9-9--------|
|-9------------------9-----------------------------------------------------|
|--------------------------------------------------------------------------|
|--------------------------------------------------------------------------|

Outro - Guitar 2
|--------------------------------------------------------------------------|
|--(11's)------------------------------------------------------------------|
|--111111-9s14--111111-9s14--777-6s11--777-6s11-(x2)-----------------------|
|--------------------------------------------------------------------------|
|--------------------------------------------------------------------------|
|--------------------------------------------------------------------------|

|--------------------------------------------------------------------------|
|--------------------------------------------------------------------------|
|-11-9s12s11--11-9s14s11---7-6s9s7---7-76----------------------------------|
|--------------------------------------------------------------------------|
|--------------------------------------------------------------------------|
|--------------------------------------------------------------------------|
            
Submit corrections


        Firebreather lessons Hard to play? Try these video lessons and learn fast Firebreather lessons
        
↑ Back to top | Tablatures and chords for acoustic guitar and electric guitar, ukulele, drums are parodies/interpretations of the original songs. You may use it for private study, scholarship, research or language learning purposes only