Home » T » Thrice »

Thrice - Firebreather Bass

Artists:  A B C D E F G H I J K L M N O P Q R S T U V W X Y Z # 

Firebreather Bass

(ver. 1) Click to play this song!
Thrice
 Rating:
4/5 (4 votes)
                x-mute
\-slide down
/-slide up

note* i play on both A strings not sure if Eddie plays both or just the Low A you be the judge

(0:19) x4
G|---------------------------------------------------------------|
D|---------------------------------------------------------------|
A|0-22-0-2-00-2-00-2---------------------------------------------|
A|0-22-0-2-00-2-00-2---------------------------------------------|

(0:38) x3
G|----------------------------------------------------------------|
D|7h9-9\-4-5\-2-2-5\-0-0-2/---------------------------------------|
A|---------------------------0h2-2/-10-9\-5-5-7\-4-4-5/-----------|
A|----------------------------------------------------------------|

(0:58) x1
G|--------------------------------------------------------------------------|
D|--------------------------------------------------------------------------|
A|9-9-9-9-9-9-9-9-10-10-10-10-141414141414-9-9-9-9-9-9-9-9-10-10-10-10-x7-x7|
A|9-9-9-9-9-9-9-9-10-10-10-10-141414141414-9-9-9-9-9-9-9-9-10-10-10-10-x7-x7|

(1:12)
G|---------------------------------------------------------------|
D|---------------------------------------------------------------|
A|0-22-0-2-00-2-00-2---------------------------------------------|
A|0-22-0-2-00-2-00-2---------------------------------------------|

(1:31)(Distortion) x4
G|----------------------------------------------------------------|
D|7h9-9\-4-5\-2-2-5\-0-0h2/---------------------------------------|
A|---------------------------0h2-2/-10-9\-5-5-7\-4-4-5/-----------|
A|----------------------------------------------------------------|

(2:10)x2
G|--------------------------------------------------------------------------|
D|--------------------------------------------------------------------------|
A|9-9-9-9-9-9-9-9-10-10-10-10-141414141414-9-9-9-9-9-9-9-9-10-10-10-10-x7-x7|
A|9-9-9-9-9-9-9-9-10-10-10-10-141414141414-9-9-9-9-9-9-9-9-10-10-10-10-x7-x7|

(2:37)to end
G|---------------------------------------------------------------------------|
D|---------------------------------------------------------------------------|
A|5-5-5-5-5-5-5-0000-5-5-5-5-5-5-5-0000-2-2-2-2-2-2-2-0000-2-2-2-2-2-2-2-0000|
E|5-5-5-5-5-5-5-0000-5-5-5-5-5-5-5-0000-2-2-2-2-2-2-2-0000-2-2-2-2-2-2-2-0000|
            
Submit corrections

↑ Back to top | Tablatures and chords for acoustic guitar and electric guitar, ukulele, drums are parodies/interpretations of the original songs. You may use it for private study, scholarship, research or language learning purposes only