» » »

Thrice - Come All You Weary Tabs

Artists:  A B C D E F G H I J K L M N O P Q R S T U V W X Y Z # 

Come All You Weary Tabs

(ver. 3) Click to play this song!
Thrice
 Rating:
4/5 (4 votes)

 Come All You Weary lessons Tabs too difficult? Try these video lessons and learn fast
 
                Hi,

this is not perfect. It is the best I can do in an hour out of a low quality video. If 
and I will modify it.

Enjoy !

Fred


Intro & Riff - Electric Guitar (Teppei):
e|---------------------------------------------|
B|---------------------------------------------|
G|-0--5--0--5--0--5--0--5p7--0-----------------|
D|------------------------------0h5\7/5--3--0--|
A|---------------------------------------------|
E|---------------------------------------------|

e|-----------------------------------------------------------------------------------|
B|-----------------------------------------------------------------------------------|
G|-0--5--0--5--0--5--0--5p7--5vvvv---5p0-----------5------------------5--------------|
D|-----------------------------------------5--5p7-----7---5---3--5p7-----7---5---3p0-|
A|-----------------------------------------------------------------------------------|
E|-----------------------------------------------------------------------------------|

Verses - Acoustic Guitar (Dustin):
e|-5------x--x--|
B|-6------x--x--|
G|-7------x--5--|
D|-7------5--5--|
A|-5------5--3--|
E|-5------3--x--|

Chorus - Acoustic Guitar (Dustin):
"Come all you weary, come gather..."
e|-x-----5-------|          |--x--x--|
B|-x-----6-------|          |--x--x--|
G|-x-----7-------| end on   |--x--x--|
D|-5-----7-------|          |--7--9--|
A|-5-----5-------|          |--7--9--|
E|-3-----5-------|          |--5--7--|

Riff is the same as the intro except the ending that you can find yourself.

Bridge - Electric Guitar (Teppei)::

e|----------------------------------------------------------|
B|-9p10--------------------------13-------------------------|
G|-------7/10--10vvv--10/12vvv---12---12/10 10/7-7vvv-------|
D|----------------------------------------------------------|
A|----------------------------------------------------------|
E|----------------------------------------------------------|
            
Submit corrections


        Come All You Weary lessons Hard to play? Try these video lessons and learn fast Come All You Weary lessons
        
↑ Back to top | Tablatures and chords for acoustic guitar and electric guitar, ukulele, drums are parodies/interpretations of the original songs. You may use it for private study, scholarship, research or language learning purposes only