» » »

Thrice - Come All You Weary Tabs

Artists:  A B C D E F G H I J K L M N O P Q R S T U V W X Y Z # 

Come All You Weary Tabs

(ver. 2) Click to play this song!
Thrice
 Rating:
4/5 (4 votes)

 Come All You Weary lessons Tabs too difficult? Try these video lessons and learn fast
 
                this is my first attempt to make my own tab, and i know there are lots of mistakes but i 
id give it a try
i couldnt hear most of the song well but plz email with suggestions/corrections!

Come all you weary

Dustin
Intro

D|----------------------------------------------------------------------|
A|----------------------------------------------------------------------|
F|----------------------------------------------------------------------|
C|-----4----------------------------------------------------------------|
G|--2--5----------------------------------------------------------------|
C|--0-------------------------------------------------------------------|

Versex2
D|----------------------------------------------------------------------|
A|----------------------------------------------------------------------|
F|----------------------------------------------------------------------|
C|---5-4------5-4-9-------5-4------5-7----------------------------------|
G|-2-7-5----2-7-5-7-----2-7-5----2-7-5-2--------------------------------|
C|-0--------0-----------0--------0-----0--------------------------------|

Intro

Chorus
D|----------------------------------------------------------------------|
A|--1--1----1--1s3------------------------------------------------------|
F|--2--0----2--0s0------------------------------------------------------|
C|--2--2----2--2s4--2---------------------------------------------------|
G|-----3-------3s5--2---------------------------------------------------|
C|------------------0---------------------------------------------------|

Intro

Versex2 - no guitar?

Chorus

Break - no guitar?

Chorus

Outro



Lead
Intro
D|---------------------------------------------------------------------|
A|---------------------------------------------------------------------|
F|-------7---7---7--9--------4-----------------------------------------|
C|---5s9---9---9------7-5h7----7-5-------------------------------------|
G|---------------------------------7-----------------------------------|
C|---------------------------------------------------------------------|

D|-------------------------------------------------------------12-------|
A|-------------------------------------------------------------12-------|
F|------7---7---7-9-7-------------7----------------------------12-------|
C|---5s9--9---9---------9p7----7h9--9h7----------7----------------------|
G|--------------------------10----------10--7h10----7-------------------|
C|----------------------------------------------------------------------|
                                                           *harmonics
Verse
Repeat Intro
Verse2
D|----------------------------------------------------------------------|
A|----------------------------------------------------------------------|
F|----------------------------------------------------------------------|
C|----------------------------------------------------------------------|
G|----------------------------------------------------------------------|
C|----------------------------------------------------------------------|
(i cant hear this part well!?)

Chorus

Intro:
D|---------------------------------------------------------------------|
A|---------------------------------------------------------------------|
F|-------7---7---7--9--------4-----------------------------------------|
C|---5s9---9---9------7-5h7----7-5-------------------------------------|
G|---------------------------------7-----------------------------------|
C|---------------------------------------------------------------------|


D|-------------------------------------------------------------|
A|-------------------------------------------------------------|
F|------7---7---7-9-7---7s9--7---------------------------------|
C|---5s9--9---9----------------9p7-----------------------------|
G|---------------------------------10-7------------------------|
C|-------------------------------------------------------------|

Verse3
D|----------------------------------------------------------------------|
A|----------------------------------------------------------------------|
F|----------------------------------------------------------------------|
C|----------------------------------------------------------------------|
G|----------------------------------------------------------------------|
C|----------------------------------------------------------------------|
(i cant hear this part well either!?)

Chorus

Break
D|-----------------------------------------------------------|
A|-------11s12-----------------------------------------------|
F|-------------9--9s12---12---12s14--14---12--9--------------|
C|-----------------------------------12----------------------|
G|-----------------------------------------------------------|
C|-----------------------------------------------------------|


D|-------------------------------------555555-----------------------|
A|-------11s12-------------------------555555-----------------------|
F|-------------9--9s12---12--11--9s7---777777-----------------------|
C|-------------------------------------777777-----------------------|
G|-------------------------------------555555-----------------------|
C|------------------------------------------------------------------|

Chorus


Outro

D|----------------------------------------------------------------------|
A|--------12--10--------------------------------------------------------|
F|---------------11---7--9--11------------------------------------------|
C|----------------------------------------------------------------------|
G|----------------------------------------------------------------------|
C|----------------------------------------------------------------------|
and play around with that?
            
Submit corrections


        Come All You Weary lessons Hard to play? Try these video lessons and learn fast Come All You Weary lessons
        
↑ Back to top | Tablatures and chords for acoustic guitar and electric guitar, ukulele, drums are parodies/interpretations of the original songs. You may use it for private study, scholarship, research or language learning purposes only