» » »

Thrice - Black Honey Tabs

Artists:  A B C D E F G H I J K L M N O P Q R S T U V W X Y Z # 

Black Honey Tabs

(ver. 2) Click to play this song!
Thrice
 Rating:
4.3/5 (16 votes)

 Black Honey lessons Tabs too difficult? Try these video lessons and learn fast
 
                [Intro: Main Riff]
                                                                       
D|----------------------------------------------------------------
A|----------------------------------------------------------------
F|--4---4-4---4---4-4----4---4-4---4--0h2/4----------------------- (X4)
C|----------------------------------------------------------------
G|2---2----------------2---2--------------------------------------
D|----------3---3----------------3--------------------------------


[Intro: Lead] (0:13)
                                                                       
D|----7---5-5---3---2-2-----7---5---3-2h3p2--------------------------
A|-------------------------------------------------------------------
F|2/4---4-----0---0-----2/4---4---0----------------------------------
C|------------------------------------------------------------------- (X2)
G|-------------------------------------------------------------------
D|-------------------------------------------------------------------


[Verse: Main Riff]
                                                                       
D|-------------------------------------------------------------------
A|-------------------------------------------------------------------
F|--4---4-4---4---4-4----4---4-4---4--0h2/4-------------------------- (x4)
C|-------------------------------------------------------------------
G|2---2----------------2---2-----------------------------------------
D|----------3---3----------------3-----------------------------------



[Pre-Chours: Main Riff]
                                                                       
D|------------------------------------------------------------------5*
A|------------------------------------------------------------------5*
F|--6---6-6-----6---6-6---4---4-4---4---4-4---6---6-6---6---6-6-------
C|--------------------------------------------------------------------
G|4---4-----4-4---------2---2-----2---2-----4---------4----------2----
D|--------------------------------------------------------------------

[Chorus]
                                                                       
D|------------------------------------0-----0-----0-------------------
A|------------------------------------0-----0-----0-------------------
F|-4---4-----------4---4-----------4-----------4----------------------
C|-4---4---5---5---4---4---5---5---4-----5-----4-----5----------------
G|-2---2---5---5---2---2---5---5---2-----5-----2-----5----------------
D|---------3---3-----------3---3---------3-----------3----------------

D|--------------------------------------0-----0-----0-----------------
A|--------------------------------------0-----0-----0-----------------
F|-4---4-----------4---4----------------------------------------------
C|-4---4---5---5---4---4---5---5-x-x-5-----5-----4------4-------------
G|-2---2---5---5---2---2---5---5-x-x-5-----5-----4------4-------------
D|---------3---3-----------3---3-x-x-3-----3-----2------2-------------


[Post-Chorus: Main Riff]
                                                                       
D|-------------------------------------------------------------------
A|-------------------------------------------------------------------
F|--4---4-4---4---4-4----4---4-4---4--0h2/4--------------------------(x2)
C|-------------------------------------------------------------------
G|2---2----------------2---2-----------------------------------------
D|----------3---3----------------3-----------------------------------

[Post-Chorus: Lead]
                                                                       
D|-7~----------------------------9h10-9/7-7--------------------------
A|-------------------------------------------------------------------
F|-------------------------------------------------------------------
C|-------------------------------------------------------------------
G|-------------------------------------------------------------------
D|-------------------------------------------------------------------

[Verse: Main Riff]
                                                                       
D|-------------------------------------------------------------------
A|-------------------------------------------------------------------
F|--4---4-4---4---4-4----4---4-4---4--0h2/4--------------------------(x4)
C|-------------------------------------------------------------------
G|2---2----------------2---2-----------------------------------------
D|----------3---3----------------3-----------------------------------


[Pre-Chours: Main Riff]
                                                                       
D|------------------------------------------------------------------5*
A|------------------------------------------------------------------5*
F|--6---6-6-----6---6-6---4---4-4---4---4-4---6---6-6---6---6-6-------
C|--------------------------------------------------------------------
G|4---4-----4-4---------2---2-----2---2-----4---------4----------2----
D|--------------------------------------------------------------------

[Chorus]
                                                                       
D|------------------------------------0-----0-----0-------------------
A|------------------------------------0-----0-----0-------------------
F|-4---4-----------4---4-----------4-----------4----------------------
C|-4---4---5---5---4---4---5---5---4-----5-----4-----5----------------
G|-2---2---5---5---2---2---5---5---2-----5-----2-----5----------------
D|---------3---3-----------3---3---------3-----------3----------------


D|--------------------------------------0-----0-----0-----------------
A|--------------------------------------0-----0-----0-----------------
F|-4---4-----------4---4----------------------------------------------
C|-4---4---5---5---4---4---5---5-x-x-5-----5-----4------4-------------
G|-2---2---5---5---2---2---5---5-x-x-5-----5-----4------4-------------
D|---------3---3-----------3---3-x-x-3-----3-----2------2-------------


[Bridge: Part 1] (2:54)
                                                                       
D|--------------------------------------------------------------------
A|--------------------------------------------------------------------
F|--------------------------------------------------------------------
C|-2-2-2-2-2-2-2-2-7-7-7-7-7-7-7-7-2-2-2-2-2-2-2-2-7-7-7-7-7-7-7-7----
G|-2-2-2-2-2-2-2-2-5-5-5-5-5-5-5-5-2-2-2-2-2-2-2-2-5-5-5-5-5-5-5-5----
D|-0-0-0-0-0-0-0-0-3-3-3-3-3-3-3-3-0-0-0-0-0-0-0-0-3-3-3-3-3-3-3-3----
PM . . . . . . . . . . . . . . . . . . . . . . . . . . . . . 
 
[Bridge: Part 2] (3:06)
                                                                       
D|--------------------------------------------------------------------
A|--------------------------------------------------------------------
F|---------------------------------4-4-4-4-4-4-4-4-2-2-2-2-2-2-2-2---- (X2)
C|-2-2-2-2-2-2-2-2-5-5-5-5-5-5-5-5-4-4-4-4-4-4-4-4-2-2-2-2-2-2-2-2----
G|-2-2-2-2-2-2-2-2-5-5-5-5-5-5-5-5-2-2-2-2-2-2-2-2-0-0-0-0-0-0-0-0----
D|-0-0-0-0-0-0-0-0-3-3-3-3-3-3-3-3------------------------------------

D|----0-----0-----0---------------------------------------------------
A|----0-----0-----0---------------------------------------------------
F|-----------------------------4~-------------------------------------
C|-5-----5-----4------4--------4~-------------------------------------
G|-5-----5-----4------4--------2~-------------------------------------
D|-3-----3-----2------2-----------------------------------------------


[Outro: Main Riff]
                                                                       
D|----------------------------------------------------------------
A|----------------------------------------------------------------
F|--4---4-4---4---4-4----4---4-4---4--0h2/4----------------------- (X2)
C|----------------------------------------------------------------
G|2---2----------------2---2--------------------------------------
D|----------3---3----------------3--------------------------------            
Submit corrections


        Black Honey lessons Hard to play? Try these video lessons and learn fast Black Honey lessons
        
↑ Back to top | Tablatures and chords for acoustic guitar and electric guitar, ukulele, drums are parodies/interpretations of the original songs. You may use it for private study, scholarship, research or language learning purposes only