» » »

Thrice - Black Honey Tabs

Artists:  A B C D E F G H I J K L M N O P Q R S T U V W X Y Z # 

Black Honey Tabs

(ver. 1) Click to play this song!
Thrice
 Rating:
4.4/5 (7 votes)

 Black Honey  lessons Tabs too difficult? Try these video lessons and learn fast
 
                Intro]
G|----2-----2---2-|----2-----2---2-|----2-----2---2-|----2-------0-2-|
D|----------------|----------------|----------------|----------3-----| 
A|0---------------|----------------|0---------------|----------------|
E|----------------|1---------------|----------------|1---------------|

[Pre-Chorus]
e|----------|----------|----------|-----|
B|----------|----------|----------|-----|
G|----------|----------|----------|-----|
D|5-5-5-5-5-|3-3-3-3-3-|5-5-5-5-5-|3----|
A|5-5-5-5-5-|3-3-3-3-3-|5-5-5-5-5-|3----|
E|3-3-3-3-3-|1-1-1-1-1-|3-3-3-3-3-|1----|

[Chorus]
e|----------------|----------------|            e|-----------------|-------|
B|----------------|----------------|            B|-----------------|-------|
G|----------------|----------------|            G|-----------------|-------|
D|7---7-7-7---7-7-|3---3-3-3---3-3-| X6         D|3-3-3---2-2-2----|-7-----|
A|7---7-7-7---7-7-|3---3-3-3---3-3-|            A|3-3-3---2-2-2----|-7-----|
E|5---5-5-5---5-5-|1---1-1-1---1-1-|            E|1-1-1---0-0-0----|-5-----|

[Bridge]
e|----------------|----------------|
B|----------------|----------------|
G|----------------|----------------|
D|5-5-5-5-5-5-5-5-|3-3-3-3-3-3-3-3-|
A|5-5-5-5-5-5-5-5-|3-3-3-3-3-3-3-3-| X2
E|3-3-3-3-3-3-3-3-|1-1-1-1-1-1-1-1-|

[End]
e|-----------|-----------|-----------|
B|-----------|-----------|-----------|
G|-----------|-----------|-----------|
D|0-3-7-5----|0-3-7-5----|-3-2--5-7--|
A|0-3-7-5----|0-3-7-5----|-3-2--5-7--|
E|--1-5-3----|--1-5-3----|-1-0--3-5--|            
Submit corrections


        Black Honey  lessons Hard to play? Try these video lessons and learn fast Black Honey  lessons
        
↑ Back to top | Tablatures and chords for acoustic guitar and electric guitar, ukulele, drums are parodies/interpretations of the original songs. You may use it for private study, scholarship, research or language learning purposes only