» » »

Thrice - Betrayal Is A Symptom Tabs

Artists:  A B C D E F G H I J K L M N O P Q R S T U V W X Y Z # 

Betrayal Is A Symptom Tabs

(ver. 3) Click to play this song!
Thrice
 Rating:
4/5 (4 votes)

 Betrayal Is A Symptom lessons Tabs too difficult? Try these video lessons and learn fast
 
                Thrice - Betrayal Is a Symptom

dropped d tuning
 
guitar 1 (Teppei)
guitar 2 (Dustin)
 
Intro

guitar 1 

-2-x-x-x-x------0h3--2-x-x-x-x---8p0---------2x-x-x-x-------0h3--5-5-5-5-3-3-3-3-
-2-x-x-x-x----0h1----2-x-x-x-x------8p0------2x-x-x-x----0h1-----5-5-5-5-3-3-3-3-
-0-x-x-x-x-0h1-------0-x-x-x-x-1/------6p0-0-0x-x-x-x-0h1--------3-3-3-3-1-1-1-1-

	
guitars 1 & 2 

-2-x-x-x-x------0h3--2-x-x-x-x---8p0---------2x-x-x-x-------0h3--5-5-5-5-3-3-3-3-
-2-x-x-x-x----0h1----2-x-x-x-x------8p0------2x-x-x-x----0h1-----5-5-5-5-3-3-3-3-
-0-x-x-x-x-0h1-------0-x-x-x-x-1/------6p0-0-0x-x-x-x-0h1--------3-3-3-3-1-1-1-1-

	
guitars 1 & 2:

-2-x-x-x-x------0h3--2-x-x-x-x---8p0---------2x-x-x-x-------0h3--5-5-5-5-3-3-3-3-
-2-x-x-x-x----0h1----2-x-x-x-x------8p0------2x-x-x-x----0h1-----5-5-5-5-3-3-3-3-
-0-x-x-x-x-0h1-------0-x-x-x-x-1/------6p0-0-0x-x-x-x-0h1--------3-3-3-3-1-1-1-1-


Chorus:

guitar 1 

-----------------------------------10--10--12-10------------------
-9-9-9-12-9-9-9-9--12--12--11--11----------------9-9-9-9-8-8-8-8--
---------------------12--12--12--12--12--12-----------------------
-7-7-7-10-7-7-7-7-------------------------------------------------
-------------------------------------------------7-7-7-7-7-7-7-7--

guitar 2 

----------5-5-5-5--------------------------------4-4-4-4-4-4-4-4--
-2-2-2-2--5-5-5-5--2--------2--------5--------5--4-4-4-4-4-4-4-4--
-2-2-2-2--3-3-3-3--2--------2--------5--------5--2-2-2-2-2-2-2-2--
-0-0-0-0-----------0--------0--------3--------3-------------------

	

guitar 1:

-----------------------------------------10--10--12-10------------------
-12-12-12-9-11-11-11-11--12--12--11--11----------------9-9-9-9-8-8-8-8--
---------------------------12--12--12--12--12--12------x-x-x-x-x-x-x-x--
-10-10-10-7--9--9--9--9--------------------------------x-x-x-x-x-x-x-x--
-------------------------------------------------------7-7-7-7-7-7-7-7--

guitar 2:

----------7-7-7-4--5--------5--------5-------------------------8--
-2-2-2-5--7-7-7-4--5--------5--------5--------7--9-9-9-9----------
-2-2-2-5--5-5-5-2--3--------3--------3--------7--9-9-9-9-------6--
-0-0-0-3--------------------------------------5--7-7-7-7----------


Verse part 2

guitar 1:

----7-----------------------------------------------
---------8----10----7----7h8p7-----7h8p7------------
-9-9-9--9-9--7--7--7-7--7-----0-7p0------0-7p0-7h9-- play 2 times
----------------------------------------------------
----------------------------------------------------
----------------------------------------------------

guitar 2:

--------------------------------------------------
--------------------------------------------------
-9-----------------------------------------7--/9--
--------------------------------------------------
-7-----------------------------------------5--/7--
--------------------------------------------------


guitar 1:

----7-----------------------------------------------
---------8----10----7----7h8p7-----7h8p7------------
-9-9-9--9-9--7--7--7-7--7-----0-7p0------0-7p0-7h9-- play 2 times
----------------------------------------------------
----------------------------------------------------
----------------------------------------------------

guitar 2:

----5----5------4-----4------4-4h5-4-0---4-4h5----5----5------4-----4------4-4h5-4-0---4-4h5p4p0
-7-7-7--7-7--5-5--5--5-5--3-3-3-------5-5-5----7-7-7--7-7--5-5--5--5-5--3-3-3-------6-6-6-------


Bridge:

both guitars:

------------------------------
------------------------------
------------------------------
-7/8-7---7---7/8-7---7---5/7-- play 4 times
-7/8-7---7---7/8-7---7---5/7--
-5/6-5-0-5-0-5/6-5-0-5-0-3/5--

Chorus part 2:

guitar 1:

-----------------------------------10--10--12-10------------------
-------12-9-9-9-9--12--12--11--11----------------9-9-9-9-8-8-8-8--
-2-2-2---------------12--12--12--12--12--12------x-x-x-x-x-x-x-x--
-2-2-2-10-7-7-7-7--------------------------------x-x-x-x-x-x-x-x--
-0-0-0-------------------------------------------7-7-7-7-7-7-7-7--

guitar 2:

----------5-5-5-5--------------------------------4-4-4-4-4-4-4-4--
-2-2-2-2--5-5-5-5--2--------2--------5--------5--4-4-4-4-4-4-4-4--
-2-2-2-2--3-3-3-3--2--------2--------5--------5--2-2-2-2-2-2-2-2--
-0-0-0-0-----------0--------0--------3--------3-------------------


guitar 1:

------------------------------------------10--10--12-10------------------
-12-12-12-9-11-11-11-11--12--12--11--11-----------------9-9-9-9-8-8-8-8--
----------------------------12--12--12--12--12--12------x-x-x-x-x-x-x-x--
-10-10-10-7--9--9--9--9---------------------------------x-x-x-x-x-x-x-x--
--------------------------------------------------------7-7-7-7-7-7-7-7--

guitar 2:

-------------7--7--7--4--5--------5-------5-------------9-9-9-9-8-8-8-8--
-2--2--2--5--7--7--7--4--5--------5-------5--------7---------------------
-2--2--2--5--5--5--5--2--3--------3-------3--------7----7-7-7-7-6-6-6-6--
-0--0--0--3----------------------------------------5---------------------


guitar 1:

----------7--7--7--7--8--8--8--8-10-10-10-10-10-10-10-10-10-10-10-10--
-9-9-9-9--x--x--x--x--x--x--x--x--x--x--x--x--x--x--x--x--x--x--x--x--
-x-x-x-x--x--x--x--x--x--x--x--x--x--x--x--x--x--x--x--x--x--x--x--x--
-x-x-x-x--x--x--x--x--x--x--x--x--x--x--x--x--x--x--x--x--x--x--x--x--
-7-7-7-7--7--7--7--7--7--7--7--7--7--7--7--7--7--7--7--7--7--7--7--7--

guitar 2:

-----------------------------------------------------------
-----------------------------------------------------------
-9-9-9-9-11-11-11-11-16-16-16-16-17-17-17-17-19-19-19-19/--
-----------------------------------------------------------
-7-7-7-7--9--9--9--9-14-14-14-14-15-15-15-15-17-17-17-17/--
-----------------------------------------------------------


Bridge part 2:

both guitars:

--------------------------------------
--------------------------------------
--------------------------------------
-2-2-2-2-----------5-5-5-------------- play 4 times
-2-2-2-2-----------5-5-5--------------
-0-0-0-0-0-5p0-3p0-3-3-3p0-3p0-3h5p0--


Outro:

guitar 1:

-------------------------------------------
-------------------------------------------
-----2---5-----------2---5-----------------
-2---2-------3-------2-------3-------------
-2---2---3---2---2---2---3---2---x/-pick---
-0---0---0---1---0---0---0---1---x/scr*pe--

guitar 2:

--------------------------------------
--------------------------------------
-----let ring out---------------------
-2----------------with----------------
-2---------------------phase effects--
-0------------------------------------

	

guitar 1:

----------------------------------8*----------------------------------- play twice
--7p0-----7p0-----7p0-----7p0--------7p0-----7p0-----7p0-----7p0-------
------7p0-----7p0-----7p0-----7p0--------7p0-----7p0-----7p0-----7-7---
-5---5---5---5---5---5---5---5------5---5---5---5---5---5---5---5-5-5--


guitar 2:

----------------------------------8---------------------------- play twice
-7-------7-------7-------7----------7-------7-------7-------7--
-7-------7-------7-------7----------7-------7-------7-------7--
-5-------5-------5-------5----------5-------5-------5-------5--

	
both guitars:

--------------------------------------------------
--------------------------------------------------
-------------------------------------------------- play 4 times
-7/8-7---7---7/8-7---7---7/8-7---7---7/8-7---7----
-7/8-7---7---7/8-7---7---7/8-7---7---7/8-7---7----
-5/6-5-0-5-0-5/6-5-0-5-0-5/6-5-0-5-0-5/6-5-0-5-0--

	
both guitars:

----
----
----
-2--
-2--
-0--
            
Submit corrections


        Betrayal Is A Symptom lessons Hard to play? Try these video lessons and learn fast Betrayal Is A Symptom lessons
        
↑ Back to top | Tablatures and chords for acoustic guitar and electric guitar, ukulele, drums are parodies/interpretations of the original songs. You may use it for private study, scholarship, research or language learning purposes only