» » »

Thrice - Betrayal Is A Symptom Tabs

Artists:  A B C D E F G H I J K L M N O P Q R S T U V W X Y Z # 

Betrayal Is A Symptom Tabs

(ver. 1) Click to play this song!
Thrice
 Rating:
4/5 (4 votes)

 Betrayal Is A Symptom lessons Tabs too difficult? Try these video lessons and learn fast
 
                Intro/verse

E|----------------------------------------------------------------------------------
B|----------------------------------------------------------------------------------
G|----------------------------------------------------------------------------------
D|--2-x-x-x-x-x-x--------------2h4p2--2-x-x-x-x-x-x---4p2---------------------------
A|--2-x-x-x-x-x-x--------2h4-----------2-x-x-x-x-x-x----------4p2-------------------
D|--2-x-x-x-x-x-x--2h5-----------------2-x-x-x-x-x-x-----------------5p2p5----------


|-----------------------------------------------------------------------------------
|-----------------------------------------------------------------------------------
|--2-x-x-x-x-x-x----------------2h4p2--5-5-5-5-5-5--3-3-3-3-3-3---------------------
|--2-x-x-x-x-x-x---------2h4------------5-5-5-5-5-5--3-3-3-3-3-3--------------------
|--2-x-x-x-x-x-x--2h5-------------------5-5-5-5-5-5--3-3-3-3-3-3--------------------


Peace
            
Submit corrections


        Betrayal Is A Symptom lessons Hard to play? Try these video lessons and learn fast Betrayal Is A Symptom lessons
        
↑ Back to top | Tablatures and chords for acoustic guitar and electric guitar, ukulele, drums are parodies/interpretations of the original songs. You may use it for private study, scholarship, research or language learning purposes only