» » »

Thrice - As The Ruin Falls Tabs

Artists:  A B C D E F G H I J K L M N O P Q R S T U V W X Y Z # 

As The Ruin Falls Tabs

(ver. 3) Click to play this song!
Thrice
 Rating:
4/5 (4 votes)

 As The Ruin Falls lessons Tabs too difficult? Try these video lessons and learn fast
 
                ONLY RHYTHM
Standard Tuning
~ = ring
() = palm mute
/ = slide
x = stop (dont let ring)

Now as we all know thrice is very difficult band to play for us  
beginners but i'm going to try to make it as easy to play as i 
can. warning it does go pretty fast so dont blink or else you'll 
miss it. if you remember the lyrics then this should be easy to 
follow but if you dont then you might get lost a little. feed 
back is appreciated

Lead plays first

INTRO 
part 1                     
e|---------------------------------------------------------------|
b|------s--------------------------------------------------------|
g|--6~--c----6-(666)-66--6-(666)-66------------------------------|
d|--6~--a----6-(666)-66--6-(666)-66--7-(777)-77--7-(777)-77------|
a|--4~--p----4-(444)-44--4-(444)-44--7-(777)-77--7-(777)-77------|
e|------e----------------------------5-(555)-55--5-(555)-55------|
                     
e|---------------------------------------------------------------|
b|---------------------------------------------------------------|
g|--6-(666)-66--6-(666)-66--4-(444)-44--4-(444)-44---------------|
d|--6-(666)-66--6-(666)-66--4-(444)-44--4-(444)-44---------------|
a|--4-(444)-44--4-(444)-44--2-(222)-22--2-(222)-22---------------|
e|---------------------------------------------------------------|
    
part 2
e|---------------------------------------------------------------|
b|---------------------------------------------------------------|
g|--6-(666)-66--6-(666)-66---------------------------------------|
d|--6-(666)-66--6-(666)-66--7-(777)-77--7-(777)-77---------------|
a|--4-(444)-44--4-(444)-44--7-(777)-77--7-(777)-77---------------|
e|--------------------------5-(555)-55--5-(555)-55---------------|

e|---------------------------------------------------------------|
b|---------------------------------------------------------------|
g|--4--4--4--4--4--4--4--4---------------------------------------|
d|--4--4--4--4--4--4--4--4---------------------------------------|
a|--2--2--2--2--2--2--2--2--7--7--7--7--7--6--6--6--6------------|
e|--------------------------5--5--5--5--5--4--4--4--4------------|

VERSE
   "Only now that you... "      "but how late my lack"
e|----------------------------|----------------------------------|
b|----------------------------|----------------------------------|
g|--------------7-7-7---------|--------------7-7-7--9-9-9--------|
d|--4-(444)-44--7-7-7--7-7-7--|--4-(444)-44--7-7-7--9-9-9--------|
a|--4-(444)-44--5-5-5--7-7-7--|--4-(444)-44--5-5-5--7-7-7--------|
e|--2-(222)-22---------5-5-5--|--2-(222)-22----------------------|
     
    "I see the chasm"            "and everything you..."
e|----------------------------|----------------------------------|
b|----------------------------|----------------------------------|
g|--------------7-7-7---------|--7-7-7--6-6-6--4-4-4--2-2-2------|
d|--4-(444)-44--7-7-7--7-7-7--|--7-7-7--6-6-6--4-4-4--2-2-2------|
a|--4-(444)-44--5-5-5--7-7-7--|--5-5-5--4-4-4--2-2-2--0-0-0------|
e|--2-(222)-22---------5-5-5--|----------------------------------|



   "my heart into a bridge..."  "by which I might get back"
e|----------------------------|----------------------------------|
b|----------------------------|----------------------------------|
g|--------------7-7-7---------|--------------7-7-7--9-9-9--------|
d|--4-(444)-44--7-7-7--7-7-7--|--4-(444)-44--7-7-7--9-9-9--------|
a|--4-(444)-44--5-5-5--7-7-7--|--4-(444)-44--5-5-5--7-7-7--------|
e|--2-(222)-22---------5-5-5--|--2-(222)-22----------------------|
     
    "from exile and grow man"   "and now the bridge is breaking"
e|----------------------------|----------------------------------|
b|----------------------------|----------------------------------|
g|--------------7-7-7---------|--7-7-7--6-6-6--4-4-4--2-2-2------|
d|--4-(444)-44--7-7-7--7-7-7--|--7-7-7--6-6-6--4-4-4--2-2-2------|
a|--4-(444)-44--5-5-5--7-7-7--|--5-5-5--4-4-4--2-2-2--0-0-0------|
e|--2-(222)-22---------5-5-5--|----------------------------------|

add this      
e|------|        let it ring for awhile then
b|------|       until the singer starts singing
g|------|
d|--4~--|   "for this I bless you as the ruins..." 
a|--4~--|
e|--2~--|


CHORUS (i think)
    "falls"    "falls"    "falls"      "as the ruins..."
e|------------------------------------|--------------------------|
b|------------------------------------|--------------------------|
g|---11---------11---------11---------|--7-/-9-/-7-/-6-----------|
d|------(44)-4-----(44)-4-----(44)-4--|--------------------------|
a|---9--(44)-4--9--(44)-4--9--(44)-4--|--5-/-7-/-5-/-4-----------|
e|------(22)-2-----(22)-2-----(22)-2--|--------------------------|


    "falls"    "falls"    "falls"      "as the ruins...... falls"
e|------------------------------------|-----------------|--------|
b|------------------------------------|-----------------|--------|
g|---11---------11---------11---------|--7-/-9-/-7-/-6--|--------|
d|------(44)-4-----(44)-4-----(44)-4--|-----------------|----4~--|
a|---9--(44)-4--9--(44)-4--9--(44)-4--|--5-/-7-/-5-/-4--|----4~--|
e|------(22)-2-----(22)-2-----(22)-2--|-----------------|----2~--|


INTERLUDE (looks difficult but it's not)
   play the acoustic part
e|--------5-----------5-----------5-----------5------------------|
b|-----7-----7-----7-----7-----6-----6-----6-----6---------------|
g|--6-----------6-----------6-----------6----------6-------------|
d|---------------------------------------------------------------|
a|---------------------------------------------------------------|
e|---------------------------------------------------------------|


OUTRO part 1
  "GO!!!!!!!"
e|---------------------------------------------------------------|
b|---------------------------------------------------------------|
g|---------------------------------------------------------------|
d|--(444)--(444)(444)----(333)--(333)(333)-----------------------|
a|--(444)--(444)(444)----(333)--(333)(333)-----------------------|
e|--(222)--(222)(222)----(111)--(111)(111)-----------------------|
    play this 6x
    on the 3x time say "as the ruins falls"

this is the 6x (it's different)
  "for this I bless you as the ruin falls"
e|---------------------------------------------------------------|
b|---------------------------------------------------------------|
g|---------------------------------------------------------------|
d|--(444)--(444)(444)----3-3-3-3-3-3-3-3-------------------------|
a|--(444)--(444)(444)----3-3-3-3-3-3-3-3-------------------------|
e|--(222)--(222)(222)----1-1-1-1-1-1-1-1-------------------------|

part 2
   "the pain you    bring"                       "far greater..."
e|---------------------------------------------------------------|
b|---------------p-----------------------------------------------|
g|---------------a-----------------------------------------------|
d|--4-4-4-4-4-4--u--3-3-3-(3-3-3)----4-4-4-4-4-4--3-3-3-333------|
a|--4-4-4-4-4-4--s--3-3-3-(3-3-3)----4-4-4-4-4-4--3-3-3-333------|
e|--2-2-2-2-2-2--e--1-1-1-(1-1-1)----2-2-2-2-2-2--1-1-1-111------|


End on:
e|------|
b|------|
g|------|
d|--4~--|
a|--4~--|
e|--2~--|
            
Submit corrections


        As The Ruin Falls lessons Hard to play? Try these video lessons and learn fast As The Ruin Falls lessons
        
↑ Back to top | Tablatures and chords for acoustic guitar and electric guitar, ukulele, drums are parodies/interpretations of the original songs. You may use it for private study, scholarship, research or language learning purposes only