» » »

Thrice - As The Ruin Falls Tabs

Artists:  A B C D E F G H I J K L M N O P Q R S T U V W X Y Z # 

As The Ruin Falls Tabs

(ver. 2) Click to play this song!
Thrice
 Rating:
4/5 (4 votes)

 As The Ruin Falls lessons Tabs too difficult? Try these video lessons and learn fast
 
                x=palm mute 
~=ring out 
/=slide 
*GUITAR ONE - Teppei* 
e|---------------------------------------------------------------------------| 
B|---------------------------------------------------------------------------| 
G|-6-66-6-6-6--8-88-8-8-8--9-99-9-9-9--8-88-8-8-8----------------------------| 
D|-6-66-6-6-6--6-66-6-6-6--6-66-6-6-6--6-66-6-6-6----------------------------| 
A|---------------------------------------------------------------------------| 
E|---------------------------------------------------------------------------| 
xx xx xx xx 

e|----------------------------------------p----------------------------------| 
B|-----------------------------------------a---------------------------------| 
G|-6-66-6-6-6--8-88-8-8-8--9-99-9-9-9--8----u--------------------------------| 
D|-6-66-6-6-6--6-66-6-6-6--6-66-6-6-6--6-----s-------------------------------| 
A|--------------------------------------------e------------------------------| 
E|---------------------------------------------------------------------------| 
xx xx xx 

e|---------------------------------------------------------------------------| 
B|---------------------------------------------------------------------------| 
G|-6-6666-6-6-6--8-8888-8-8-8--9-9999-9-9-9--8-8888-8-8-8--------------------| 
D|-6-6666-6-6-6--6-6666-6-6-6--6-6666-6-6-6--6-6666-6-6-6--------------------| 
A|---------------------------------------------------------------------------| 
E|---------------------------------------------------------------------------| 
xxxx xxxx xxxx xxxx 

e|---------------------------------------------------------------------------| 
B|---------------------------------------------------------------------------| 
G|-6-6666-6-6-6--8-8888-8-8-8--9-9999-9-9-9--8-9-8---------------------------| 
D|-6-6666-6-6-6--6-6666-6-6-6--6-6666-6-6-6--6-6-6---------------------------| 
A|---------------------------------------------------------------------------| 
E|---------------------------------------------------------------------------| 
xxxx xxxx xxxx 

e|---------------------------------------------------------------------------| 
B|-----------------------------9-9999-9-9-9--7-7777-7-7-7--------------------| 
G|-6-6666-6-6-6--8-8888-8-8-8--8-8888-8-8-8--8-8888-8-8-8-----------99999999-| 
D|-6-6666-6-6-6--6-6666-6-6-6------------------------------99999999-99999999-| 
A|---------------------------------------------------------99999999-77777777-| 
E|---------------------------------------------------------77777777----------| 
xxxx xxxx xxxx xxxx 

e|---------------------------------------------------------------------------| 
B|---------------------------------------------------------------------------| 
G|-11-11111111-11-11-11--9-9-9-11-11111111-11-11-11--14-14-14--9-9-9---------| 
D|---------------------------------------------------------------------------| 
A|--9--9-9-9-9--9--9--9--7-7-7--9--9-9-9-9--9--9--9--12-12-12--7-7-7---------| 
E|---------------------------------------------------------------------------| 
x x x x x x x x 

e|---------------------------------------------------------------------------| 
B|---------------------------------------------------------------------------| 
G|-11-11111111-11-11-11--9-9-9--14-14-14--13-13-13-11-11-11--9-9-9-----------| 
D|---------------------------------------------------------------------------| 
A|--9--9-9-9-9--9--9--9--7-7-7--12-12-12--11-11-11--9--9--9--7-7-7-----------| 
E|---------------------------------------------------------------------------| 
x x x x 

e|---------------------------------------------------------------------------| 
B|---------------------------------------------------------------------------| 
G|-11-11111111-11-11-11--9-9-9-11-11111111-11-11-11--14-14-14--9-9-9---------| 
D|---------------------------------------------------------------------------| 
A|--9--9-9-9-9--9--9--9--7-7-7--9--9-9-9-9--9--9--9--12-12-12--7-7-7---------| 
E|---------------------------------------------------------------------------| 
x x x x x x x x 

e|---------------------------------------------------------------------------| 
B|---------------------------------------------------------------------------| 
G|-11-11111111-11-11-11--9-9-9--14-14-14--13-13-13-14-14-14-16-16-16---------| 
D|---------------------------------------------------------------------------| 
A|--9--9-9-9-9--9--9--9--7-7-7--12-12-12--11-11-11-12-12-12-14-14-14---------| 
E|---------------------------------------------------------------------------| 
x x x x 

play this a bunch: 
e|---------------------------------------------------------------------------| 
B|---------------------------------------------------------------------------| 
G|---------------------------------------------------------------------------| 
D|---------------------------------------------------------------------------| 
A|--4-4-444-444-444-444-444-444-44444444-------------------------------------| 
E|--2-2-222-222-222-222-222-222-22222222-------------------------------------| 
x x xxx xxx xxx xxx xxx xxx xxxxxxxx 

play once w/distortion, once clean, then thrice w/distortion: 
e|-----5-------5-------5-------5---------------------------------------------| 
B|---7---7---7---7---6---6---6---6-------------------------------------------| 
G|-6-------6-------6-------6-------------------------------------------------| 
D|---------------------------------------------------------------------------| 
A|---------------------------------------------------------------------------| 
E|---------------------------------------------------------------------------| 

e|---------------------------------------------------------------------------| 
B|---------------------------------------------------------------------------| 
G|-14-13--------------14-13---------------14-13-------------14-13-16-16-16-16| 
D|-------11~-11-11-9--------11~-11-11-9-9-------11~-11-11-9------------------| 
A|-12-11--------------12-11---------------12-11-------------12-11-14-14-14-14| 
E|--------9~--9--9-7---------9~--9--9-7-7--------9~--9--9-7------------------| 

e|---------------------------------------------------------------------------| 
B|---------------------------------------------------------------------------| 
G|-16-16-16-16---14~/13~/6~~~/14~~/13~~/6~~~~~-------------------------------| 
D|---------------------------------------------------------------------------| 
A|-14-14-14-14---12~/11~/4~~~/12~~/11~~/4~~~~--------------------------------| 
E|---------------------------------------------------------------------------|
            
Submit corrections


        As The Ruin Falls lessons Hard to play? Try these video lessons and learn fast As The Ruin Falls lessons
        
↑ Back to top | Tablatures and chords for acoustic guitar and electric guitar, ukulele, drums are parodies/interpretations of the original songs. You may use it for private study, scholarship, research or language learning purposes only