» » »

Thrice - A Song For Milly Michaelson Tabs

Artists:  A B C D E F G H I J K L M N O P Q R S T U V W X Y Z # 

A Song For Milly Michaelson Tabs

(ver. 2) Click to play this song!
Thrice
 Rating:
4.7/5 (14 votes)

 A Song For Milly Michaelson lessons Tabs too difficult? Try these video lessons and learn fast
 
                I think it's sound good, but the chorus it maybe another pattern, but the chords are right

A Song For Milly Michaelson by Thrice

Intro/Verse
e|---------------------------------------|
B|-0-----0------0-----0------0-----0-----|
G|---------------------------------------|
D|---2-0---2-0---2-0----2-0---2-0---2-0--|
A|---------------------------------------|
E|-0-----0------0-----0-----3-----3------|

The Singing Starts on (3X2X0X).

Verse Interlude
e|---------------------------|
B|-0-----0------0-----0------|
G|---------------------------|
D|---2-0---2-0---2-0----2-0--|
A|---------------------------|
E|-0-----0------0-----0------|

Chorus
e|----------------------------------------|
B|----------------------------------------|
G|-----0---------0---------0---------0----|
D|---------------------------0---------0--|
A|-------7---------7----------------------|
E|-8---------8---------3---------3--------|

e|----------------------------------------|
B|----------------------------------------|
G|----0---------0---------0---------0-----|
D|------0---------0-------------------7---|
A|--------------------------7-------------|
E|-7--------7---------8---------8---------|

e|----------------------------------------|
B|----------------------------------------|
G|----0---------0-------------------------|
D|------0---------0-----------------------|
A|----------------------------------------|
E|-7--------7-----------------------------|


Lyrics:
Verse
Well you know I hardly speak
When I do, it's just for you
I haven't said a word in weeks
Cause they've been keepin' me from you

There's a way where there's a will
You know I got no need for stairs
Step out on the window sill
Fall with me into the air

Chorus
Here we go, hold on tight and don't let go
I won't ever let you fall
I love the night, flying o'er these city lights
But I love you most of all

Verse
And there's something you should know
Girl you should have died that day
and you fell reaching for the rose
but baby I was there to save you

Choruses
So, here we go, hold on tight and don't let go
I won't ever let you fall
I love the night, flying o'er these city lights
But I love you most of all

Here we go, hold on tight and don't let go
I won't ever let you fall
I love the night, flying o'er these city lights
But I love you most of all
            
Submit corrections


        A Song For Milly Michaelson lessons Hard to play? Try these video lessons and learn fast A Song For Milly Michaelson lessons
        
↑ Back to top | Tablatures and chords for acoustic guitar and electric guitar, ukulele, drums are parodies/interpretations of the original songs. You may use it for private study, scholarship, research or language learning purposes only