» » »

Thrice - A Song For Milly Michaelson Tabs

Artists:  A B C D E F G H I J K L M N O P Q R S T U V W X Y Z # 

A Song For Milly Michaelson Tabs

(ver. 1) Click to play this song!
Thrice
 Rating:
4/5 (4 votes)

 A Song For Milly Michaelson lessons Tabs too difficult? Try these video lessons and learn fast
 
                -----------------------------------------
-----------------------------------------

Tuning: Standard (EADGBe)

So some of these are kind of a stretch, but it's not so hard. Some other tabs had
down as separate parts (Guitar I, Guitar II, Bass), I think it's all on one guitar but
of whether it is or not, it's possible to play it on one guitar so that's what I did 
I think it's pretty accurate so enjoy!

 Verse (Repeat until Chorus)
e|-------------------------------------------------|
B|-0-----0-----0-----0-----0-----0-----0-----0-----|
G|-------------------------------------------------|
D|---2-----2-----2-----2-----2-----2-----2-----2---|
A|-----5-----5-----5-----5-----5-----5-----5-----5-|
E|-3-----3-----5-----5-----0-----0-----0-----0-----|

 Chorus: "Here we go, hold on tight and don't let go..."
e|-------------------------------------------------------------------|
B|-0-----0-----0-----0-----0-----0-----0-----0-----0-----0-----0-----|
G|---0-----0-----0-----0-----0-----0-----0-----0-----0-----0-----0---|
D|-----2-----2-----2-----0-----2-----2-----2-----0-----2-----2-----2-|
A|-3-----3-----------------3-----3-----------------3-----3-----------|
E|-------------3-----3-----------------3-----3-----------------3-----|

e|-------------------------------|
B|-0-----0-----0-----0-----0-----|
G|---0-----0-----0-----0-----0---|
D|-----0-----2-----2-----2-----2-|
A|-------3-----3-----3-----3-----|
E|-3-----------------------------|


1st Verse

Well you know I hardly speak;
and when I do it's just for you.
I haven't said a word in weeks;
because they've been keeping me from you.

But there's a way where there's a will;
you know I got no need for stairs.
So step out on the windowsill,
and fall with me into the air.

Chorus

Here we go,
hold on tight and don't let go;
I won't ever let you fall.
I love the night,
and flying o'er these city lights;
but I love you most of all.

2nd Verse

And there's something you should know;
girl you should have died that day
when you fell reaching for the rose.
But baby I was there to save you.

Chorus X2

That's about it, the song ends on the verse riff.
            
Submit corrections


        A Song For Milly Michaelson lessons Hard to play? Try these video lessons and learn fast A Song For Milly Michaelson lessons
        
↑ Back to top | Tablatures and chords for acoustic guitar and electric guitar, ukulele, drums are parodies/interpretations of the original songs. You may use it for private study, scholarship, research or language learning purposes only