» » »

Thom Yorke - Harrowdown Hill Tabs

Artists:  A B C D E F G H I J K L M N O P Q R S T U V W X Y Z # 

Harrowdown Hill Tabs

(ver. 2) Click to play this song!
Thom Yorke
 Rating:
4.5/5 (8 votes)

 Harrowdown Hill lessons Tabs too difficult? Try these video lessons and learn fast
 
                -------------------------------------------------------------------------------
-------------------------------------------------------------------------------

Tuning: Standard

This song doesn't contain a lot of guitar, and the one tab that I did see on here is not 
very convenient way to play it. This is also my first tab, so I thought I would pick 
easy.

Most of the song is played like this:
e|-----------------------------------------------------|
B|-----------------------------------------------------|
G|-----------------------------------------------------|
D|-----------------------------------------------------|
A|----5-5----5-5----4-0--------------------------------|
E|----------------------3------------------------------|

Somewhere in the chorus, the guitar jumps up an octave for a little bit:
e|-----------------------------------------------------|
B|-----------------------------------------------------|
G|-----------------------------------------------------|
D|----5-5----5-5----4-0--------------------------------|
A|----------------------3------------------------------|
E|-----------------------------------------------------|

At the end, after a short break, you get into a little bit of funky sounding play style:
e|--------------xxxxxxxx-------------------------------|
B|----5/7--7-77-xxxxxxxx-5/7--7-77--10-10-10\5--5-55---|
G|--------------xxxxxxxx-------------------------------|
D|--------------xxxxxxxx-------------------------------|
A|--------------xxxxxxxx-------------------------------|
E|----5/7--7-77-xxxxxxxx-5/7--7-77--10-10-10\5--5-55---| x3

Keep in mind that the slide after the palm mute is left out the second time you play 
part.

Other than that, I think that's pretty much the song. Hope you enjoy 'The Eraser' for 
musical masterpiece that it is. Thanks!


| /  slide up
| \  slide down
| h  hammer-on
| p  pull-off
| ~  vibrato
| +  harmonic
| x  Mute note
===============================================================================
            
Submit corrections


        Harrowdown Hill lessons Hard to play? Try these video lessons and learn fast Harrowdown Hill lessons
        
↑ Back to top | Tablatures and chords for acoustic guitar and electric guitar, ukulele, drums are parodies/interpretations of the original songs. You may use it for private study, scholarship, research or language learning purposes only