» » »

Thom Yorke - Atoms For Peace Tabs

Artists:  A B C D E F G H I J K L M N O P Q R S T U V W X Y Z # 

Atoms For Peace Tabs

(ver. 2) Click to play this song!
Thom Yorke
 Rating:
4/5 (8 votes)

 Atoms For Peace lessons Tabs too difficult? Try these video lessons and learn fast
 
                Since this song -or at least the main part- isn't really played on guitar, I had to move 
up a half-step to make it work. If you want it to be in the right key, you can just 
your guitar down a half-step. Just listen for the rhythm.

Verse/Chorus (repeats throughout)

e-------------------------------------------------|
B-------------------------------------------------|
G-------------------------------------------------|
D---------7---------7-----------7---------7-------|
A-----7-4---7-----7---7-4---7-4---4-7---7---7-----|
E---5---------5-----------0-----------7-------7---|


Outro Riff (roughly)

e------------------------------------------------|
B------------------------------------------------|
G------------------------------------------------|
D------------------------------------------------|
A---5-5-5-5-5-4--5-5-5-5-5-4---------------------|
E----------------------------0-0-0-0-0-0-0-0-----|
            
Submit corrections


        Atoms For Peace lessons Hard to play? Try these video lessons and learn fast Atoms For Peace lessons
        
↑ Back to top | Tablatures and chords for acoustic guitar and electric guitar, ukulele, drums are parodies/interpretations of the original songs. You may use it for private study, scholarship, research or language learning purposes only