Home » T » Thom Yorke »

Thom Yorke - Atoms For Peace Bass

Artists:  A B C D E F G H I J K L M N O P Q R S T U V W X Y Z # 

Atoms For Peace Bass

(ver. 1) Click to play this song!
Thom Yorke
 Rating:
4.2/5 (6 votes)
                Repeat throughout song

G|-------------13-----------13-----------------13-------------13--------|
D|-------13-10----13-----13----13-10-----13-10----10-13----13----13-----|
A|---11--------------11---------------------------------13----------13--|
E|-----------------------------------11---------------------------------|

"Solo" (for bass)

G|-------------------------------------------------------------|
D|-------------------------------------------------------------|
A|--4-4-4-4-4-4--4--4-3---4-4-4--4-4-4-4--4-3---7-7--7-7--7-7--|
E|--------------------------------------------4----------------|

G|------------------------------------------------------------------------|
D|------------------------------------------------------------------------|
A|--7-7--7-7--7-7--7-7--7-7--7-7--7-7--7-7--7-7--7-7--7-7--7-7--7-7--7-7--|
E|------------------------------------------------------------------------|


This sounds much better on the bass than the guitar as in the previous tabs.
            
Submit corrections

↑ Back to top | Tablatures and chords for acoustic guitar and electric guitar, ukulele, drums are parodies/interpretations of the original songs. You may use it for private study, scholarship, research or language learning purposes only