Home » T » Thin Lizzy »

Thin Lizzy - Cowboy Song Live Bass

Artists:  A B C D E F G H I J K L M N O P Q R S T U V W X Y Z # 

Cowboy Song Live Bass

(ver. 1) Click to play this song!
Thin Lizzy
 Rating:
2.6/5 (30 votes)
                Intro: (Played quietly under guitar and vocals)
      I am just a cowboy...lonesome on the trail.....A starry night...The
Gb|-----------------------------------------------------------------------|
Db|-7----------------------------------------------7----------------6-----|
Ab|---------------7------9----------7------5------------------------------|
Eb|-----------------------------------------------------------------------|

    Campfire light.................The coyote call.........and the howling
Gb|------------------------------------------------------------------------|
Db|-----------------------------7------------------------------------------|
Ab|----------------9-----7--5----------------------7----9------------------|
Eb|------------------------------------------------------------------------|

    Winds wail......So I ride out...to the old sundown..........(1.2.3.)
Gb|----------------------------------------------------------------------|
Db|----------------7-----------6-----------------------------------------|
Ab|--7-----5-------------------------------------9--------7---5----------|
Eb|----------------------------------------------------------------------|

Chorus 1: (No Vocals)
Gb|----------------------------------------------|
Db|-7--7---------7--7---------7--7---------------|
Ab|------5---5--------4---4----------------------|
Eb|--------------------------------7--5--2--0--5-|

Gb|----------------------------------------------------|
Db|-7--7---------7--7---------7--7---------------------|
Ab|------5---5--------4---4----------------------------|
Eb|--------------------------------7--5--2--0--5-5-5-5-|

Verse:
Gb|------------------------------------------------------------------------|
Db|-7--7--7--7-------------------------------------7--7--7--7---6--6--6--6-|
Ab|------------7--7--7--8--9--9--9--7--5--5--5-4---------------------------|
Eb|----------------------------------------------7-------------------------|

Gb|------------------------------------------------------------------------|
Db|-------------------------7--7--7--7-------------------------------------|
Ab|-9--9--9--7--5--5--5-4--------------7--7--7--8--9--9--9--7--5--5--5-4---|
Eb|-----------------------7----------------------------------------------7-|

Gb|---------------------------------------------|
Db|-7--7--7--7---6--6--6--6---------------------|
Ab|-------------------------9--9--9--7--5--5--5-|
Eb|---------------------------------------------|

Repeat Chorus 1: (With Vocals)

Repeat Verse:

Repeat Chorus 1: (With Vocals)

1st Solo: (Repeat Verse)

Chorus 2 Part 1:              (No Vocals Play This x2)
Gb|----------------------------------------------|
Db|-7--7---7-----7--7--7------7--7---------------|
Ab|------5---5--------4---4----------------------|
Eb|--------------------------------7--5--2--0--5-|

Chorus 2 Part 2: (Vocals but NO BASS)

2nd Solo:                           (Play This x2)
Gb|----------------------------------------------|
Db|-7--7---7-----7--7---7-----7--7---------------|
Ab|------5---5--------4---4----------------------|
Eb|--------------------------------7--5--2--0--5-|

Chorus 3:                          (Play This x3)
Gb|----------------------------------------------|
Db|-7--7---7-----7--7---7-----7--7---------------|
Ab|------5---5--------4---4----------------------|
Eb|--------------------------------7--5--2--0--5-|

Gb|----------------------------------------------------|
Db|-7--7---7-----7--7---7-----7--7---------------------|
Ab|------5---5--------4---4----------------------------|
Eb|--------------------------------7--5--2--0--5-5-5-5-|

Solo 3: (Repeat Verse)

Outro:
Gb|----------------------------------------------|
Db|-7--7---7-----7--7---7-----7--7---------------|
Ab|------5---5--------4---4----------------------|
Eb|--------------------------------7--5--2--0--5-|

Gb|----------------------------------------------|
Db|-7--7---7-----7--7---7-----7--7---------------|
Ab|------5---5--------4---4----------------------|
Eb|--------------------------------7--5--2--0--5-|

    Roll me over and set me free... Cowboy's life......is the life for me..
Gb|----------------------------------------------------------------------|
Db|-7--7---7-----7--7---7-----7--7---------------------------------------|
Ab|------5---5--------4---4---------2-------3----4---5-------------------|
Eb|----------------------------------------------------------------------|

            
Submit corrections

↑ Back to top | Tablatures and chords for acoustic guitar and electric guitar, ukulele, drums are parodies/interpretations of the original songs. You may use it for private study, scholarship, research or language learning purposes only