» » »

Thin Lizzy - Cowboy Song Tabs

Artists:  A B C D E F G H I J K L M N O P Q R S T U V W X Y Z # 

Cowboy Song Tabs

(ver. 2) Click to play this song!
Thin Lizzy
 Rating:
4/5 (4 votes)

 Cowboy Song lessons Tabs too difficult? Try these video lessons and learn fast
 
                Cowboy Song

Thin Lizzy (Jailbreak)



(I used my own two ears... so if there any mistakes... fix em!)

1st Solo :
e-----------------------------------------------------------|
b-----------------------------------------------16bvvvr16---|
g--13vvv----13----13--15bvvvvr15p13----15-13vvv-------------|
d--------15----15-------------------15----------------------|
a-----------------------------------------------------------|
e-----------------------------------------------------------|
					hold bend
e---------------------------------------------------------------|
b--16b--16bvvvvr16p14----14-16-14vvvv-----------16--------------|
g---------------------15--------------15b17vvvv---(15b)vvr15p13-|
d-----------------------------------grad.bend-------------------|
a---------------------------------------------------------------|
e---------------------------------------------------------------|
				  repeat     repeat
e--------------------------------|----------|-----------|-------13vv-|
b--------------------------------|----------|--16p13----|-13h16------|
g--15-p13vvvv-------------8bvvvvv|-------13-|--------13-|------------|
d-------------/8vv\6---6---------|-13h15----|-----------|------------|
a--------------------8-----------|----------|-----------|------------|
e--------------------------------|----------|-----------|------------|
      repeat						      2x	
e----|-------13-|------------------16p13---------------------|--------|
b-16-|-13h16----|---16bvvvvvr16p13-------16v-16p13-----------|--------|
g----|----------|-13-------------------------------15vvv--13-|-13h15--|
d----|----------|--------------------------------------------|--------|
a----|----------|--------------------------------------------|--------|
e----|----------|--------------------------------------------|--------|

e-------------------|-----------------------------------------|
b-13h14----14-13vvv-|--------13h14--13h14-16p14\13------------|
g-------13----------|--13h15-----------------------15p13------|
d-------------------|------------------------------------15vv-|
a-------------------|-----------------------------------------|
e-------------------|-----------------------------------------|

		 Interlude :  (guitar 2 just plays octaves of these notes)
			      (either one or two octaves above given notes)
e--------------|-------------------------------------------------|
b--13vvv-------|-------------------------------------------------|
g--13vvv-------|o-----6vv---6-----------5vv---5------------3vvvv-|
d---------x\---|o-6-6-----6---6-6vv-6-6-----6---6-6vv--6-6-------|
a----------x\--|-------------------------------------------------|
e--------------|-------------------------------------------------|

e-----------------------||
b-----------------------||
g-\1vvv----------------o||
d-------3--1--3-h6vvvv-o||
a-----------------------||
e-----------------------||

Harmonizing Interlude : 2 guitars

		    	    _______1______ ________2________	
e-guitar-1--------------------------------|-----------------
b--/6vvvvv--4vvvvv--2vvvvv--1---/2vv-1vv--|-----------------
g--/6vvvvv--5vvvvv--3vvvvv--1---/3vv-1vv--|-----------1-1-2-
d-guitar-2------------------.-------------|----3-3-2--1-1-3-
a-----------------------staccato----------|-/3-1-1-3--------
e-----------------------------------------|-/4--------------

e------------4-|
b---1-1--/4----|
g---1-1--/5----|
d--------------|
a--------------|
e--------------|

2nd Solo :
   light PH--------\
e--------------------------------------------------------------|
b--------------------4vvvv-----------13--13-16t13--------------|
g--3bvv-3bvv-3bvv-3bvvv----13----15bvv------------15br15p13----|
d-----------------------------15----------------------------15-|
a--------------------------------------------------------------|
e--------------------------------------------------------------|
				 repeat
e------------------------------|----------------|--------------|
b------------------------------|----------------|--------------|
g--13vvv-----------------------|----------------|-----13-13-13-|
d--------15--13-13-------------|-------13-13-13-|-/15----------|
a------------------15-13-13----|-13h15----------|--------------|
e---------------------------16-|----------------|--------------|
  repeat
e|-----------------|-------------------------------------------------|
b|--------13-16p13-|----16bvv-r16vv-14\13----------------------------|
g|--15b17----------|-13-------------------13vv------13--15-15br15p13-|
d|-----------------|--------------------------13h15------------------|
a|-----------------|-------------------------------------------------|
e|-----------------|-------------------------------------------------|

e------------------------------------------------------------|
b------------------------16----------------------------------|
g-----13vvv-15-13-15bvvvvvvbvr15-13vvvv----------------------|
d--15-----------------------------------/15-13---------------|
a----------------------------------------------15-13-13------|
e-------------------------------------------------------16\--|

e-----------------------------------13--16--15--13--15--16--13vvvv-|
b--------------------------------13--------------------------------|
g-----------------------------15b----------------------------------|
d------13-15vv----13-15vv-15---------------------------------------|
a--/15---------15--------------------------------------------------|
e------------------------------------------------------------------|


e----------------16vvvv---16vvvv\\--|
b-16-13--16bvvv--16bvvvr--16bvvv\\--|
g-----------------------------------|
d-----------------------------------|
a-----------------------------------|
e-----------------------------------|

Thin Lizzy ROCKS!
 _______
|       \  
|   O   |
|       |
|______/ 
|      \
|   O   |
|_______|.    S.
            
Submit corrections


        Cowboy Song lessons Hard to play? Try these video lessons and learn fast Cowboy Song lessons
        
↑ Back to top | Tablatures and chords for acoustic guitar and electric guitar, ukulele, drums are parodies/interpretations of the original songs. You may use it for private study, scholarship, research or language learning purposes only