Home » T » Thin Lizzy »

Thin Lizzy - Cowboy Song Bass

Artists:  A B C D E F G H I J K L M N O P Q R S T U V W X Y Z # 

Cowboy Song Bass

(ver. 2) Click to play this song!
Thin Lizzy
 Rating:
4/5 (4 votes)
                  Original tuning is half step down
  Intro                               
G:|----------|-----------|--------6-|----------|
D:|--7-------|-----------|-7--9-7---|----------|
A:|-------7--|--9--7--5--|----------|-9-9--7-5-|
E:|----------|-----------|----------|----------|

G:|----------|-----------|-----------|------------|
D:|--7-------|-----------|-7---------|------------|
A:|-------7--|-9-9--7-5--|-----------|--9-9--7-5--|
E:|----------|-----------|----4------|------------|
   Chorus
G:|-----------|-----------|----------|----------|
D:|-7-7--7----|-7-7--7----|-7-7------|----------|  X2
A:|----5--5---|----4--4---|----------|----------|
E:|-----------|-----------|----7--5--|-2--0--5--|
   Verse
G:|---------|----------|----------|----------|
D:|-7-7-7-7-|----------|----------|----------|
A:|---------|-7-7-7-7--|-9-9-9--7-|5-~-------|
E:|---------|----------|----------|----------|

G:|---------|----------|----------|----------|
D:|-7-7-9-7-|-6-6-7-6--|----------|----------|
A:|---------|----------|-9-9-9--7-|5---------| X2
E:|---------|----------|----------|----------|
            
Submit corrections

↑ Back to top | Tablatures and chords for acoustic guitar and electric guitar, ukulele, drums are parodies/interpretations of the original songs. You may use it for private study, scholarship, research or language learning purposes only