» » »

The Sword - Maiden, Mother & Crone Tabs

Artists:  A B C D E F G H I J K L M N O P Q R S T U V W X Y Z # 

Maiden, Mother & Crone Tabs

(ver. 2) Click to play this song!
The Sword
 Rating:
4/5 (4 votes)

 Maiden, Mother & Crone lessons Tabs too difficult? Try these video lessons and learn fast
 
                -------------------------------------------------------------------------------
                    Maiden Mother Crone - The Sword
-------------------------------------------------------------------------------

Tuning: C Standard (C F A# D# G C)

(At time of tabbing this is the only one with the solo)

Intro
C |---------------------------------------------------------------|
G |---------------------------------------------------------------|
D#|---------------------------------------------------------------|
A#|---------------------------------9-12--------------------------|
F |--------------------------10-----------------------------------|
C |-0--0--10/12-15-12-10-10-----10--------0--0--10/12-15-12-10-10-|

C |------------------------------------------------------------------------|
G |------------------------------------------------------------------------|
D#|------------------------------------------------------------------------|
A#|-9--9/10\9--9-9-----------------------7--9b11r9-------------------------|
F |-7--7/8-\7--7-7------------------12-9-----------------------------------|
C |----------------7/12-15-12-10-10----------------0--0--10/12-15-12-10-10-|

C |-------------|
G |-------------|
D#|-------------|
A#|-------------|
F |-------------|
C |-0-5/7-6-5-4-|

Riff A
C |--------------------------------------------------------|
G |--------------------------------------------------------|Do not play the
D#|--------------------------------------------------------|last note on the
A#|-----------------5-----5--------------------7-------5---|fourth repeat.
F |-5-7--5-7--5-7p5---5-7---7--5-7--5-7--5-7p5---5h7p5---7-|
C |--------------------------------------------------------|x4

Verse
C |----------------------------------|--------------|
G |----------------------------------|--------------|Play this on the fourth
D#|-9-9-9-9-9--12-7--9-9-9-9-9--7-10-|--------------|repeat instead of the
A#|-9-9-9-9-9--12-7--9-9-9-9-9--7-10-|---------9-12-|final two chords. (this
F |-7-7-7-7-7--10-5--7-7-7-7-7--5-8--|---7-10-------|last part changes)
C |----------------------------------|x4------------|

Chorus
C |--------------------------------------------|
G |--------------------------------------------|
D#|-9--9-9--9--9-9--7-7--9--9-9--9--9-9--12-12-|
A#|-9--9-9--9--9-9--7-7--9--9-9--9--9-9--12-12-|
F |-7--7-7--7--7-7--5-5--7--7-7--7--7-7--10-10-|
C |--------------------------------------------|x2

Riff A x2
Verse (Same as last time but play this ending instead)
C |--------------|
G |--------------|
D#|-------9b11r9-|
A#|-12-9---------|
F |--------------|
C |--------------|

Chorus x4
(Fourth time play normally to the -5-7-7- chords then play this right after)
C |-------------------|
G |-------------------|
D#|-------------------|
A#|-7h9p7----7----7---|
F |-------10---10---7-|
C |-------------------|

Bridge
C |----------------------------------------------------------------|
G |----------------------------------------------------------------|
D#|----------------------------------------------------------------|
A#|-2-2--7/9-12-9-7-7--7--------9-12--2-2--7/9-12-9-7--7--9-9-10/9-|
F |-2-2--5/7-10-7-5-5--5--10-7--------2-2--5/7-10-7-5--5--7-7-8-/7-|
C |-0-0-------------------------------0-0--------------------------|

C |----------------------------------------------------------------------|
G |----------------------------------------------------------------------|
D#|-----------------------------9b11r9-----------------------------------|
A#|-2-2--7/9-12-9-7-7--7--12-9----------2-2--7/9-12-9-7-7--7-5--5-4--4-3-|
F |-2-2--5/7-10-7-5-5--5----------------2-2--5/7-10-7-5-5--5-3--3-2--2-1-|
C |-0-0---------------------------------0-0------------------------------|

Riff A x1

Transition to riff B
C |--------------------------------------------------------------|
G |--------------------------------------------------------------|
D#|--------------------------------------------------------------|
A#|-----------------5-----5--------------------7-7h8p7-5---------|
F |-5-7--5-7--5-7p5---5-7---7--5-7--5-7--5-7p5-----------0-0-1-2-|
C |--------------------------------------------------------------|

Riff B
C |-----------------------|
G |-----------------------|
D#|-----------------------|
A#|-----------------------|
F |-0-2--0-2-0--0-0-1-1-2-|
C |-----------------------|x4

Solo
C |-----------------------------------------------------|
G |-17--------------------------------------------------|
D#|-18b21--17-16--17-16h17p16---------------------------|
A#|---------------------------19-17---------19-17-19b21-|
F |---------------------------------19-17~--------------|
C |-----------------------------------------------------|


C |---------------------------------------------------------|
G |-----------------------------------19--------------------|
D#|-------19-14-16-14-14b16r14-----------17-17-17-17-17-----|
A#|-19-17----------------------17-14~-------------------16~-|
F |---------------------------------------------------------|
C |---------------------------------------------------------|

C |----------------------------------------------------------------------|
G |----------------------------------------------------------------------|
D#|----------------------------------------------------------------------|
A#|-16-17-17-19-17-16-14---------------19-17-16-14-16-14-----17-16-17b19-|
F |----------------------17~-16-17-16~-------------------17~-------------|
C |----------------------------------------------------------------------|

C |---------------------------------------------------------|
G |---------------------------------------------------------|
D#|-12-14-12----12-----------------------9-9b11r9-7h9p7-----|
A#|----------14----16-14-12------9-10-12----------------7-9-|
F |-------------------------15~-----------------------------|
C |---------------------------------------------------------|

C |-------------------------------------|
G |-15-17-19-15-15/17-19-20-17-17-20b22-|
D#|-------------------------------------|
A#|-------------------------------------|
F |-------------------------------------|
C |-------------------------------------|

Verse x1 (Same as last time but play this ending instead)
C |--------------------------------|
G |-15b17r15-----------------------|
D#|----------16-18-16-14-16-14-----|
A#|----------------------------14~-|
F |--------------------------------|
C |--------------------------------|

Chorus x4 (Same as chorus right before the bridge)

Outro
C |---------------------------------------------------------|
G |--------------10-----------------------------------------|
D#|-9--11-12-11-----12--12-11-9-----------------------------|
A#|------------------------------9-12-12/16-14--12-7-7/11-9-|
F |------------------------------7-10-10/14-12--10-5-5/9--7-|
C |---------------------------------------------------------|

C |-------------------------|------------|
G |-------------------------|------------|
D#|-------------------------|------------|
A#|-7-7-8-9--7-9--7-9--7--9-|---7-7-8-9/-|
F |-5-5-6-7--7-7--7-7--7--7-|---5-5-6-7/-|
C |-------------------------|x3----------|


| r  release bend
| /  slide up
| \  slide down
| h  hammer-on
| p  pull-off
| ~  vibrato
| +  harmonic
| x  Mute note
===============================================================================
            
Submit corrections


        Maiden, Mother & Crone lessons Hard to play? Try these video lessons and learn fast Maiden, Mother & Crone lessons
        
↑ Back to top | Tablatures and chords for acoustic guitar and electric guitar, ukulele, drums are parodies/interpretations of the original songs. You may use it for private study, scholarship, research or language learning purposes only