Home » T » The Sunshine Underground »

The Sunshine Underground - Way It Is Bass

Artists:  A B C D E F G H I J K L M N O P Q R S T U V W X Y Z # 

Way It Is Bass
Version #2
The Sunshine Underground


Copy URL
There is basically one main riff in this song repeated over:

G--------0----------------------------|
D------3----1-------------------------|
A--------------3----------------------|
E--1----------------------------------|

This riff then changes slightly to:

G--------------------------------------|
D--------------------------------------|
A--------3---1-------------------------|
E--1--3---------4----------------------|

And then back to the original riff
            
Submit corrections

↑ Back to top | Tablatures and chords for acoustic guitar and electric guitar, ukulele, drums are parodies/interpretations of the original songs. You may use it for private study, scholarship, research or language learning purposes only