Home » T » The Sunshine Underground »

The Sunshine Underground - Way It Is Bass

Artists:  A B C D E F G H I J K L M N O P Q R S T U V W X Y Z # 

Way It Is Bass
Version #1
The Sunshine Underground


Copy URL

G---------------------------|
D---------------------------|
A----7--7-7-9-5-------------|
E-----------------7---------| x4

G------------------------------------------------------------|
D--------------------------7-7-7-----------------------------|
A----7--7-7-9-5----------------------7--7-7-7-9-5------------|
E-----------------7---------------------------------7--------|
            
Submit corrections

↑ Back to top | Tablatures and chords for acoustic guitar and electric guitar, ukulele, drums are parodies/interpretations of the original songs. You may use it for private study, scholarship, research or language learning purposes only