» » »

The Sleeping - King Of Hearts Tabs

Artists:  A B C D E F G H I J K L M N O P Q R S T U V W X Y Z # 

King Of Hearts Tabs

(ver. 2) Click to play this song!
The Sleeping
 Rating:
4/5 (4 votes)

 King Of Hearts lessons Tabs too difficult? Try these video lessons and learn fast
 
                -------------------------------------------------------------------------------
                             King Of Hearts - The Sleeping
-------------------------------------------------------------------------------

Not 100% but close enough. Feel free to Email me or instant message me for
comments. Thanks

Buy This Album.

Tuning: Standard

Intro
e|---------------------------------------------------------------------------|
B|----------3----------------------------------------------------------------|
G|----------0----------------------------------------------------------------|
D|9----2----0----7----9------------------------------------------------------|
A|9----2----2----7----9------------------------------------------------------|
E|7----0----3----5----7------------------------------------------------------|

e|---------------------------------------------------------------------------|
B|----------3----------------------------------------------------------------|
G|----------0----------------------------------------------------------------|
D|9----2----0----7----9------------------------------------------------------|
A|9----2----2----7----9------------------------------------------------------|
E|7----0----3----5----7------------------------------------------------------|

Verse - Listen For Strumming
e|---------------------------------------------------------------------------|
B|----------3----5-----------------------------------------------------------|
G|----------0----0-----------------------------------------------------------|
D|9----2----0----0----9------------------------------------------------------|
A|9----2----2----4----9------------------------------------------------------|
E|7----0----3----5----7------------------------------------------------------|

e|---------------------------------------------------------------------------|
B|----------3----5-----------------------------------------------------------|
G|----------0----0-----------------------------------------------------------|
D|9----2----0----0----9----5-------------------------------------------------|
A|9----2----2----4----9----5-------------------------------------------------|
E|7----0----3----5----7----3-------------------------------------------------|

Chorus - Listen For Strumming
e|---------------------------------------------------------------------------|
B|---------------------------------------------------------------------------|
G|4---2----------------------------------------------------------------------|
D|4---2---2-0-2-0------------------------------------------------------------|
A|2---0---2-0-2-0------------------------------------------------------------|
E|----0---0-3-0-3------------------------------------------------------------|

e|---------------------------------------------------------------------------|
B|---------------------------------------------------------------------------|
G|4---2----------------------------------------------------------------------|
D|4---2---2-0-2-0------------------------------------------------------------|
A|2---0---2-0-2-0------------------------------------------------------------|
E|----0---0-3-0-3------------------------------------------------------------|

Verse - Listen For Strumming
e|---------------------------------------------------------------------------|
B|----------3----5-----------------------------------------------------------|
G|----------0----0-----------------------------------------------------------|
D|9----2----0----0----9------------------------------------------------------|
A|9----2----2----4----9------------------------------------------------------|
E|7----0----3----5----7------------------------------------------------------|

e|---------------------------------------------------------------------------|
B|----------3----5-----------------------------------------------------------|
G|----------0----0-----------------------------------------------------------|
D|9----2----0----0----9----5-------------------------------------------------|
A|9----2----2----4----9----5-------------------------------------------------|
E|7----0----3----5----7----3-------------------------------------------------|

Chorus - Listen For Strumming
e|---------------------------------------------------------------------------|
B|---------------------------------------------------------------------------|
G|4---2----------------------------------------------------------------------|
D|4---2---2-0-2-0------------------------------------------------------------|
A|2---0---2-0-2-0------------------------------------------------------------|
E|----0---0-3-0-3------------------------------------------------------------|

e|---------------------------------------------------------------------------|
B|---------------------------------------------------------------------------|
G|4---2----------------------------------------------------------------------|
D|4---2---2-0-2-0------------------------------------------------------------|
A|2---0---2-0-2-0------------------------------------------------------------|
E|----0---0-3-0-3------------------------------------------------------------|

Breakdown
e|---------------------------------------------------------------------------|
B|---------------------------------------------------------------------------|
G|44-44----------------------------------------------------------------------|
D|44-44----------------------------------------------------------------------|
A|22-22----------------------------------------------------------------------|
E|---------------------------------------------------------------------------|



| /  slide up
| \  slide down
| h  hammer-on
| p  pull-off
| ~  vibrato
| +  harmonic
| x  Mute note
===============================================================================
            
Submit corrections


        King Of Hearts lessons Hard to play? Try these video lessons and learn fast King Of Hearts lessons
        
↑ Back to top | Tablatures and chords for acoustic guitar and electric guitar, ukulele, drums are parodies/interpretations of the original songs. You may use it for private study, scholarship, research or language learning purposes only