» » »

The Sleeping - King Of Hearts Tabs

Artists:  A B C D E F G H I J K L M N O P Q R S T U V W X Y Z # 

King Of Hearts Tabs

(ver. 1) Click to play this song!
The Sleeping
 Rating:
4/5 (5 votes)

 King Of Hearts lessons Tabs too difficult? Try these video lessons and learn fast
 
                -------------------------0-----------------------------------------------------|
--------------------------0----------------------------------------------------|
---0-----------------------0---------------------------------------------------|
---4------------------------4----------------------------------5---------------|
---2-------------------------2---------------------------------5---------------|
---0-------------------0---------------------------------------3---------------|
 Who are you there with       cause i swear ive seen him before


---0-----------------------------------------------------------------------|
----0----------------------------------------------------------------------|
-----0------------------------------------------0--------------------------|
------4-----------------------------------------4--------------------------|
-------2----------------------------------------2--------------------------|
-0----------------------------------------------0--------------------------|
    Though in the distance i just turn my head away


-----------------------------------------------------------------------|
-----------------------------------------------------------------------|
-----------------------------------------------------------------------|
--5--------------------------------------------------------------------|
--5--------------------------------------------------------------------|
--3--------------------------------------------------------------------|
what part of clinging to the same trends


---0------------------------------------------------------|
----0-----------------------------------------------------|
-----0-----------------------0----------------------------|
------4----------------------4----------------------------|
-------2---------------------2----------------------------|
-0---------------------------0----------------------------|
makes sense to a girl who cries, at least twice a day because she is unhappy


------------------------------------------------------------------|
------------------------------------------------------------------|
------------------------------------------------------------------|
-7---9--9-------9-----9-------9-7-----7-----7------7-5-----5---5--|
-7---9--9-------9-----9-------9-7-----7-----7------7-5-----5---5--|REPEAT
-5---7--7--7-7--7-7-7-7--7--7-7-5-5-5-5-5-5-5--5-5-5-3-3-3-3-3-3--|
WE COULD HAVE MADE IT...........

------------------------------------------------|
------------------------------------------------|
--0--0-0----------------------------------------|
--4--4-4----------------------------------------|
--2--2-2----------------------------------------|
--0--0-0----------------------------------------|
            
Submit corrections


        King Of Hearts lessons Hard to play? Try these video lessons and learn fast King Of Hearts lessons
        
↑ Back to top | Tablatures and chords for acoustic guitar and electric guitar, ukulele, drums are parodies/interpretations of the original songs. You may use it for private study, scholarship, research or language learning purposes only