» » »

Therion - To Mega Therion Tabs

Artists:  A B C D E F G H I J K L M N O P Q R S T U V W X Y Z # 

To Mega Therion Tabs

(ver. 2) Click to play this song!
Therion
 Rating:
4/5 (4 votes)

 To Mega Therion lessons Tabs too difficult? Try these video lessons and learn fast
 
                To Mega Therion (Live)                              


Guitar 1



                                                                 
C#||-------------------|-------------------|--------------------|
G#||-------------------|-------------------|--------------------|
E ||-------------------|-------------------|--------------------|
B ||-------------------|-------------------|--------------------|
F#||----------------2--|--2----------------|--2--------------2--|
C#||----------------0--|--0----------------|--0--------------0--|


                                                             
-------------------|--------------------|-------------------|
-------------------|--------------------|-------------------|
-------------------|--4-----------------|-------------------|
-------------------|--4-----------------|-------------------|
--2----------------|--2--------------2--|--2----------------|
--0----------------|-----------------0--|--0----------------|


                                                                                
--------------------|-------------------|-------------------|------------------|
--------------------|-------------------|-------------------|------------------|
--------------------|-------------------|--4----------------|------------------|
--------------------|-------------------|--4----------------|------------------|
--2--------------2--|--2----------------|--2----------------|------------------|
--0--------------0--|--0----------------|-------------------|------------------|


                                                              
------------------------------|------------------------------|
------------------------------|------------------------------|
------------------------------|------------------------------|
------------------------------|------------------------------|
------------------------------|------------------------------|
--0--0-0-0--0-0-0--0-0-0--0-0-|--0--0-0-0--0-0-0--0-0-0--0-0-|


                                                              
------------------------------|------------------------------|
------------------------------|------------------------------|
------------------------------|------------------------------|
------------------------------|------------------------------|
------------------------------|--2--2-2-2--2-2-2--2-2-2--2-2-|
--0--0-0-0--0-0-0--0-0-0--0-0-|------------------------------|


                                                              
------------------------------|------------------------------|
------------------------------|------------------------------|
------------------------------|------------------------------|
------------------------------|------------------------------|
------------------------------|------------------------------|
--0--0-0-0--0-0-0--0-0-0--0-0-|--0--0-0-0--0-0-0--0-0-0--0-0-|


                                                              
------------------------------|------------------------------|
------------------------------|------------------------------|
------------------------------|------------------------------|
------------------------------|------------------------------|
------------------------------|--2--2-2-2--2-2-2--2-2-2--2-2-|
--0--0-0-0--0-0-0--0-0-0--0-0-|------------------------------|


                                                              
------------------------------|------------------------------|
------------------------------|------------------------------|
------------------------------|------------------------------|
------------------------------|------------------------------|
------------------------------|------------------------------|
--0--0-0-0--0-0-0--0-0-0--0-0-|--0--0-0-0--0-0-0--0-0-0--0-0-|


                                                              
------------------------------|------------------------------|
------------------------------|------------------------------|
------------------------------|------------------------------|
------------------------------|------------------------------|
------------------------------|--2--2-2-2--2-2-2--2-2-2--2-2-|
--0--0-0-0--0-0-0--0-0-0--0-0-|------------------------------|


                                                              
------------------------------|------------------------------|
------------------------------|------------------------------|
------------------------------|------------------------------|
------------------------------|------------------------------|
------------------------------|------------------------------|
--0--0-0-0--0-0-0--0-0-0--0-0-|--0--0-0-0--0-0-0--0-0-0--0-0-|


                                                              
------------------------------|------------------------------|
------------------------------|------------------------------|
------------------------------|------------------------------|
------------------------------|------------------------------|
------------------------------|--2--2-2-2--2-2-2--2-2-2--2-2-|
--0--0-0-0--0-0-0--0-0-0--0-0-|------------------------------|


                                                                  
-------------------|-------------------|-------------------------|
-------------------|-------------------|-------------------------|
-------------------|-------------------|-------------------------|
--2----------------|--2----------------|--4----4--4--4--4--5--4--|
--2----------------|--1----------------|--2----2--2--2--2--3--2--|
--0----------------|-------------------|-------------------------|


                                                                              
-------------------------|-------------------------|-------------------------|
-------------------------|-------------------------|-------------------------|
-------------------------|-------------------------|-------------------------|
----4--4--4--8--8--8--8--|--4----4--4--4--4--5--4--|----4--4--4--8--8--8--8--|
----2--2--2--6--6--6--6--|--2----2--2--2--2--3--2--|----2--2--2--6--6--6--6--|
-------------------------|-------------------------|-------------------------|


                                                                  
-------------------|-------------------|-------------------------|
-------------------|-------------------|-------------------------|
-------------------|-------------------|-------------------------|
--2----------------|--2----------------|--4----4--4--4--4--5--4--|
--2----------------|--1----------------|--2----2--2--2--2--3--2--|
--0----------------|-------------------|-------------------------|


                                                                              
-------------------------|-------------------------|-------------------------|
-------------------------|-------------------------|-------------------------|
-------------------------|-------------------------|-------------------------|
----4--4--4--8--8--8--8--|--4----4--4--4--4--5--4--|----4--4--4--8--8--8--8--|
----2--2--2--6--6--6--6--|--2----2--2--2--2--3--2--|----2--2--2--6--6--6--6--|
-------------------------|-------------------------|-------------------------|


                                                             
-------------------|--------------------|-------------------|
-------------------|--------------------|-------------------|
-------------------|--------------------|-------------------|
-------------------|--------------------|-------------------|
--2----------------|--2--------------2--|--2----------------|
--0----------------|--0--------------0--|--0----------------|


                                                              
--------------------|-------------------|--------------------|
--------------------|-------------------|--------------------|
--4-----------------|-------------------|--------------------|
--4-----------------|-------------------|--------------------|
--2--------------2--|--2----------------|--2--------------2--|
-----------------0--|--0----------------|--0--------------0--|


                                                           
-------------------|-------------------|------------------|
-------------------|-------------------|------------------|
-------------------|--4----------------|------------------|
-------------------|--4----------------|------------------|
--2----------------|--2----------------|------------------|
--0----------------|-------------------|------------------|


                                                              
------------------------------|------------------------------|
------------------------------|------------------------------|
------------------------------|------------------------------|
------------------------------|------------------------------|
------------------------------|------------------------------|
--0--0-0-0--0-0-0--0-0-0--0-0-|--0--0-0-0--0-0-0--0-0-0--0-0-|


                                                              
------------------------------|------------------------------|
------------------------------|------------------------------|
------------------------------|------------------------------|
------------------------------|------------------------------|
------------------------------|--2--2-2-2--2-2-2--2-2-2--2-2-|
--0--0-0-0--0-0-0--0-0-0--0-0-|------------------------------|


                                                              
------------------------------|------------------------------|
------------------------------|------------------------------|
------------------------------|------------------------------|
------------------------------|------------------------------|
------------------------------|------------------------------|
--0--0-0-0--0-0-0--0-0-0--0-0-|--0--0-0-0--0-0-0--0-0-0--0-0-|


                                                              
------------------------------|------------------------------|
------------------------------|------------------------------|
------------------------------|------------------------------|
------------------------------|------------------------------|
------------------------------|--2--2-2-2--2-2-2--2-2-2--2-2-|
--0--0-0-0--0-0-0--0-0-0--0-0-|------------------------------|


                                                              
------------------------------|------------------------------|
------------------------------|------------------------------|
------------------------------|------------------------------|
------------------------------|------------------------------|
------------------------------|------------------------------|
--0--0-0-0--0-0-0--0-0-0--0-0-|--0--0-0-0--0-0-0--0-0-0--0-0-|


                                                              
------------------------------|------------------------------|
------------------------------|------------------------------|
------------------------------|------------------------------|
------------------------------|------------------------------|
------------------------------|--2--2-2-2--2-2-2--2-2-2--2-2-|
--0--0-0-0--0-0-0--0-0-0--0-0-|------------------------------|


                                                              
------------------------------|------------------------------|
------------------------------|------------------------------|
------------------------------|------------------------------|
------------------------------|------------------------------|
------------------------------|------------------------------|
--0--0-0-0--0-0-0--0-0-0--0-0-|--0--0-0-0--0-0-0--0-0-0--0-0-|


                                                              
------------------------------|------------------------------|
------------------------------|------------------------------|
------------------------------|------------------------------|
------------------------------|------------------------------|
------------------------------|--2--2-2-2--2-2-2--2-2-2--2-2-|
--0--0-0-0--0-0-0--0-0-0--0-0-|------------------------------|


                                                                  
-------------------|-------------------|-------------------------|
-------------------|-------------------|-------------------------|
-------------------|-------------------|-------------------------|
--2----------------|--2----------------|--4----4--4--4--4--5--4--|
--2----------------|--1----------------|--2----2--2--2--2--3--2--|
--0----------------|-------------------|-------------------------|


                                                                              
-------------------------|-------------------------|-------------------------|
-------------------------|-------------------------|-------------------------|
-------------------------|-------------------------|-------------------------|
----4--4--4--8--8--8--8--|--4----4--4--4--4--5--4--|----4--4--4--8--8--8--8--|
----2--2--2--6--6--6--6--|--2----2--2--2--2--3--2--|----2--2--2--6--6--6--6--|
-------------------------|-------------------------|-------------------------|


                                                                  
-------------------|-------------------|-------------------------|
-------------------|-------------------|-------------------------|
-------------------|-------------------|-------------------------|
--2----------------|--2----------------|--4----4--4--4--4--5--4--|
--2----------------|--1----------------|--2----2--2--2--2--3--2--|
--0----------------|-------------------|-------------------------|


                                                                              
-------------------------|-------------------------|-------------------------|
-------------------------|-------------------------|-------------------------|
-------------------------|-------------------------|-------------------------|
----4--4--4--8--8--8--8--|--4----4--4--4--4--5--4--|----4--4--4--8--8--8--8--|
----2--2--2--6--6--6--6--|--2----2--2--2--2--3--2--|----2--2--2--6--6--6--6--|
-------------------------|-------------------------|-------------------------|


                                                               
---------------------|------------------|---------------------|
----------7----------|------------------|----------5----------|
------7--------------|------------------|------6--------------|
--9------------------|------------------|--8------------------|
---------------------|------------------|---------------------|
---------------------|------------------|---------------------|


                                                             
------------------|----------------------|------------------|
------------------|-----------8----------|------------------|
------------------|-------9--------------|------------------|
------------------|--11------------------|------------------|
------------------|----------------------|------------------|
------------------|----------------------|------------------|


                                                                        
---------------------|------------------|------------------------------|
----------7----------|------------------|------------------------------|
------7--------------|------------------|------------------------------|
--9------------------|------------------|------------------------------|
---------------------|------------------|----------------9--9----------|
---------------------|------------------|--7--7--10--10--------10--10--|


                                                          
------------------------------|--------------------------|
------------------------------|--------------------------|
------------------------------|--------------------------|
------------------------------|--------------------------|
----------------9--9----------|--------------7--7--------|
--7--7--10--10--------10--10--|--6--6--9--9--------9--9--|


                                                      
--------------------------|--------------------------|
--------------------------|--------------------------|
--------------------------|--------------------------|
--------------------------|--------------5--5--------|
--------------7--7--------|--4--4--7--7--------7--7--|
--6--6--9--9--------9--9--|--------------------------|


                                                          
--------------------------|------------------------------|
--------------------------|------------------------------|
--------------------------|------------------------------|
--------------5--5--------|------------------------------|
--4--4--7--7--------7--7--|----------------9--9----------|
--------------------------|--7--7--10--10--------10--10--|


                                                              
------------------------------|------------------------------|
------------------------------|------------------------------|
------------------------------|------------------------------|
------------------------------|------------------------------|
----------------9--9----------|----------------9--9----------|
--7--7--10--10--------10--10--|--7--7--10--10--------10--10--|


                                                          
------------------------------|--------------------------|
------------------------------|--------------------------|
------------------------------|--------------------------|
------------------------------|--------------------------|
----------------9--9----------|--------------7--7--------|
--7--7--10--10--------10--10--|--6--6--9--9--------9--9--|


                                                      
--------------------------|--------------------------|
--------------------------|--------------------------|
--------------------------|--------------------------|
--------------------------|--------------5--5--------|
--------------7--7--------|--4--4--7--7--------7--7--|
--6--6--9--9--------9--9--|--------------------------|


                                                          
--------------------------|------------------------------|
--------------------------|------------------------------|
--------------------------|------------------------------|
--------------5--5--------|------------------------------|
--4--4--7--7--------7--7--|----------------9--9----------|
--------------------------|--7--7--10--10--------10--10--|


                                                                       
------------------------------|-------------------|-------------------|
------------------------------|-------------------|-------------------|
------------------------------|-------------------|-------------------|
------------------------------|--7----------------|-------------------|
----------------9--9----------|--5----------------|--7----------------|
--7--7--10--10--------10--10--|-------------------|--5----------------|


                                                                                
-------------------|-------------------|-------------------|-------------------|
-------------------|-------------------|-------------------|-------------------|
-------------------|-------------------|-------------------|-------------------|
--4----------------|-------------------|--4----------------|-------------------|
--2----------------|--4----------------|--2----------------|--4----------------|
-------------------|--2----------------|-------------------|--2----------------|


                                                                        
------------------------|--------------------------|-------------------|
------------------------|--------------------------|-------------------|
------------------------|--------------------------|-------------------|
------------------------|--------------------------|--7----------------|
--7------7--7--7--7--7--|--7--7--7--7--7--7--7--7--|--5----------------|
--5------5--5--5--5--5--|--5--5--5--5--5--5--5--5--|-------------------|


                                                                                
-------------------|-------------------|-------------------|-------------------|
-------------------|-------------------|-------------------|-------------------|
-------------------|-------------------|-------------------|-------------------|
-------------------|--4----------------|-------------------|--4----------------|
--7----------------|--2----------------|--4----------------|--2----------------|
--5----------------|-------------------|--2----------------|-------------------|


                                                                        
-------------------|------------------------|--------------------------|
-------------------|------------------------|--------------------------|
-------------------|------------------------|--------------------------|
-------------------|------------------------|--------------------------|
--4----------------|--7------7--7--7--7--7--|--7--7--7--7--7--7--7--7--|
--2----------------|--5------5--5--5--5--5--|--5--5--5--5--5--5--5--5--|


                                                          
----------------------------|----------------------------|
--19-17-15-14-12------------|--19-17-15-14-12------------|
----------------------------|----------------------------|
----------------------------|----------------------------|
----------------------------|----------------------------|
----------------------------|----------------------------|


                                                          
----------------------------|----------------------------|
--17-15-14-12-11------------|--17-15-14-12-11------------|
----------------------------|----------------------------|
----------------------------|----------------------------|
----------------------------|----------------------------|
----------------------------|----------------------------|


                                                          
----------------------------|----------------------------|
--20-19-17-15-14------------|--20-19-17-15-14------------|
----------------------------|----------------------------|
----------------------------|----------------------------|
----------------------------|----------------------------|
----------------------------|----------------------------|


                                                                               
----------------------------|----------------------------|--------------------|
--19-17-15-14-12------------|--19-17-15-14-12------------|--12~---------------|
----------------------------|----------------------------|--------------------|
----------------------------|----------------------------|--------------------|
----------------------------|----------------------------|--------------------|
----------------------------|----------------------------|--------------------|


                                                                   
----------------------|--------------------|----------------------|
--------------14--12--|--11~---------------|--------------11--12--|
----------------------|--------------------|----------------------|
----------------------|--------------------|----------------------|
----------------------|--------------------|----------------------|
----------------------|--------------------|----------------------|


                                                                     
--------------------|--------------------------|--------------------|
--14~---------------|----------17--14--12--11--|--12~---------------|
--------------------|--------------------------|--------------------|
--------------------|--------------------------|--------------------|
--------------------|--------------------------|--------------------|
--------------------|--------------------------|--------------------|


                                                                     
------------------------|---------------------|---------------------|
--------11--12----14----|--7~-----7~-----7~---|---------------------|
------------------------|---------------------|--9~-----9~-----9~---|
------------------------|---------------------|---------------------|
------------------------|---------------------|---------------------|
------------------------|---------------------|---------------------|


                                                                  
---------------------|---------------------|---------------------|
---------------------|---------------------|---------------------|
--7~-----7~-----7~---|---------------------|--7~-----7~-----7~---|
---------------------|--7~-----7~-----7~---|---------------------|
---------------------|---------------------|---------------------|
---------------------|---------------------|---------------------|


                                                                 
---------------------|--------------------|---------------------|
---------------------|--------------------|---------------------|
---------------------|--------------------|--9~-----7~-----6~---|
--7~-----7~-----7~---|--11~---------------|---------------------|
---------------------|--------------------|---------------------|
---------------------|--------------------|---------------------|


                                                                  
---------------------|---------------------|---------------------|
--7~-----7~-----7~---|---------------------|---------------------|
---------------------|--9~-----9~-----9~---|--7~-----7~-----7~---|
---------------------|---------------------|---------------------|
---------------------|---------------------|---------------------|
---------------------|---------------------|---------------------|


                                                                  
---------------------|---------------------|---------------------|
---------------------|---------------------|---------------------|
---------------------|--7~-----7~-----7~---|---------------------|
--7~-----7~-----7~---|---------------------|--7~-----7~-----7~---|
---------------------|---------------------|---------------------|
---------------------|---------------------|---------------------|


                                                               
--------------------|---------------------|-------------------|
--------------------|---------------------|-------------------|
--------------------|--9~-----7~-----6~---|-------------------|
--11~---------------|---------------------|-------------------|
--------------------|---------------------|--2----------------|
--------------------|---------------------|--0----------------|


                                                                                
--------------------|-------------------|-------------------|------------------|
--------------------|-------------------|-------------------|------------------|
--------------------|-------------------|--4----------------|------------------|
--------------------|-------------------|--4----------------|------------------|
--2--------------2--|--2----------------|--2----------------|------------------|
--0--------------0--|--0----------------|-------------------|------------------|


                                                              
------------------------------|------------------------------|
------------------------------|------------------------------|
------------------------------|------------------------------|
------------------------------|------------------------------|
------------------------------|------------------------------|
--0--0-0-0--0-0-0--0-0-0--0-0-|--0--0-0-0--0-0-0--0-0-0--0-0-|


                                                              
------------------------------|------------------------------|
------------------------------|------------------------------|
------------------------------|------------------------------|
------------------------------|------------------------------|
------------------------------|--2--2-2-2--2-2-2--2-2-2--2-2-|
--0--0-0-0--0-0-0--0-0-0--0-0-|------------------------------|


                                                              
------------------------------|------------------------------|
------------------------------|------------------------------|
------------------------------|------------------------------|
------------------------------|------------------------------|
------------------------------|------------------------------|
--0--0-0-0--0-0-0--0-0-0--0-0-|--0--0-0-0--0-0-0--0-0-0--0-0-|


                                                              
------------------------------|------------------------------|
------------------------------|------------------------------|
------------------------------|------------------------------|
------------------------------|------------------------------|
------------------------------|--2--2-2-2--2-2-2--2-2-2--2-2-|
--0--0-0-0--0-0-0--0-0-0--0-0-|------------------------------|


                                                              
------------------------------|------------------------------|
------------------------------|------------------------------|
------------------------------|------------------------------|
------------------------------|------------------------------|
------------------------------|------------------------------|
--0--0-0-0--0-0-0--0-0-0--0-0-|--0--0-0-0--0-0-0--0-0-0--0-0-|


                                                              
------------------------------|------------------------------|
------------------------------|------------------------------|
------------------------------|------------------------------|
------------------------------|------------------------------|
------------------------------|--2--2-2-2--2-2-2--2-2-2--2-2-|
--0--0-0-0--0-0-0--0-0-0--0-0-|------------------------------|


                                                              
------------------------------|------------------------------|
------------------------------|------------------------------|
------------------------------|------------------------------|
------------------------------|------------------------------|
------------------------------|------------------------------|
--0--0-0-0--0-0-0--0-0-0--0-0-|--0--0-0-0--0-0-0--0-0-0--0-0-|


                                                              
------------------------------|------------------------------|
------------------------------|------------------------------|
------------------------------|------------------------------|
------------------------------|------------------------------|
------------------------------|--2--2-2-2--2-2-2--2-2-2--2-2-|
--0--0-0-0--0-0-0--0-0-0--0-0-|------------------------------|


                                                                   
-------------------|-------------------|--------------------------|
-------------------|-------------------|--------------------------|
-------------------|-------------------|--------------------------|
--2----------------|--2----------------|--4--4--4--4--4--4--5--4--|
--2----------------|--1----------------|--2--2--2--2--2--2--3--2--|
--0----------------|-------------------|--------------------------|


                                                                               
-------------------------|--------------------------|-------------------------|
-------------------------|--------------------------|-------------------------|
-------------------------|--------------------------|-------------------------|
----4--4--4--8--8--8--8--|--4--4--4--4--4--4--5--4--|----4--4--4--8--8--8--8--|
----2--2--2--6--6--6--6--|--2--2--2--2--2--2--3--2--|----2--2--2--6--6--6--6--|
-------------------------|--------------------------|-------------------------|


                                                                   
-------------------|-------------------|--------------------------|
-------------------|-------------------|--------------------------|
-------------------|-------------------|--------------------------|
--2----------------|--2----------------|--4--4--4--4--4--4--5--4--|
--2----------------|--1----------------|--2--2--2--2--2--2--3--2--|
--0----------------|-------------------|--------------------------|


                                                                               
-------------------------|--------------------------|-------------------------|
-------------------------|--------------------------|-------------------------|
-------------------------|--------------------------|-------------------------|
----4--4--4--8--8--8--8--|--4--4--4--4--4--4--5--4--|----4--4--4--8--8--8--8--|
----2--2--2--6--6--6--6--|--2--2--2--2--2--2--3--2--|----2--2--2--6--6--6--6--|
-------------------------|--------------------------|-------------------------|


                                                                       
--------------------------------------|-------------------------------|
--------------------------------------|-------------------------------|
--------------------------------------|-------------------------------|
--8--8--8--8--8--8--8--8--8--8--8--8--|-------------------------------|
--6--6--6--6--6--6--6--6--6--6--6--6--|-------------------------------|
--------------------------------------|--0--0--0--0-0-0-0-0-0-0-0-0-0-|


                                                                
-------------------------------|-------------------------------|
-------------------------------|-------------------------------|
-------------------------------|-------------------------------|
-------------------------------|-------------------------------|
--0--0--0--0-0-0-0-0-0-0-0-0-0-|--5--5--5--5-5-5-5-5-5-5-5-5-5-|
-------------------------------|-------------------------------|


                                                           
--------------------------|-------------------------------|
--------------------------|-------------------------------|
--------------------------|-------------------------------|
--------------------------|-------------------------------|
--2--2--2--2--2--2--------|-------------------------------|
--------------------3--2--|--0--0--0--0-0-0-0-0-0-0-0-0-0-|


                                                                
-------------------------------|-------------------------------|
-------------------------------|-------------------------------|
-------------------------------|-------------------------------|
-------------------------------|-------------------------------|
--0--0--0--0-0-0-0-0-0-0-0-0-0-|--5--5--5--5-5-5-5-5-5-5-5-5-5-|
-------------------------------|-------------------------------|


                                                    
--------------------------|--12~-------12------12--|
--------------------------|--12~-------------------|
--------------------------|------------------------|
--------------------------|------------------------|
--2--2--2--2--2--2--------|------------------------|
--------------------3--2--|------------------------|


                                                           
--10--12--8--10------------------|------------------------|
-----------------12--13--10--12--|--13~-------13------13--|
---------------------------------|------------------------|
---------------------------------|------------------------|
---------------------------------|------------------------|
---------------------------------|------------------------|


                                                                         
---------------------------------------------|--------------------10-10-|
--12--13--10--12--10-8-10-8-10-8-8-7-8-7-8-7-|--12~-------12------------|
---------------------------------------------|--------------------------|
---------------------------------------------|--------------------------|
---------------------------------------------|--------------------------|
---------------------------------------------|--------------------------|


                                                                
--10--8-8-8--------------------------|-------------------------|
-------------12-12-12--10-10-10--12--|--12--10--10~-------8----|
-------------------------------------|-------------------------|
-------------------------------------|-------------------------|
-------------------------------------|-------------------------|
-------------------------------------|-------------------------|


                                                                          
---------------------|-------------------|-------------------------------|
--7~-------8----7----|--5----------------|-------------------------------|
---------------------|-------------------|-------------------------------|
---------------------|-------------------|-------------------------------|
---------------------|-------------------|--0--0--0--0-0-0-0-0-0-0-0-0-0-|
---------------------|-------------------|-------------------------------|


                                                           
-------------------------------|--------------------------|
-------------------------------|--------------------------|
-------------------------------|--------------------------|
-------------------------------|--------------------------|
--5--5--5--5-5-5-5-5-5-5-5-5-5-|--2--2--2--2--2--2--------|
-------------------------------|--------------------3--2--|


                                                                
-------------------------------|-------------------------------|
-------------------------------|-------------------------------|
-------------------------------|-------------------------------|
-------------------------------|-------------------------------|
-------------------------------|--0--0--0--0-0-0-0-0-0-0-0-0-0-|
--0--0--0--0-0-0-0-0-0-0-0-0-0-|-------------------------------|


                                                           
-------------------------------|--------------------------|
-------------------------------|--------------------------|
-------------------------------|--------------------------|
-------------------------------|--------------------------|
--5--5--5--5-5-5-5-5-5-5-5-5-5-|--2--2--2--2--2--2--------|
-------------------------------|--------------------3--2--|


                                                                           
--12h15-19t12h15-19t12-15-19-12-15-19-12-15-19-12-15-19-12-15-19-12-15-19-|


                                                                           
--12-17-20-12-17-20-12-17-20-12-17-20-12-17-20-12-17-20-12-17-20-12-17-20-|


                                                                           
--10-14-17-10-14-17-10-14-17-10-14-17-10-14-17-10-14-17-10-14-17-10-14-17-|


                                                                           
--10-14-19-10-14-19-10-14-19-10-14-19-10-14-19-10-14-19-10-14-19-10-14-19-|


                                                                           
--12-15-19-12-15-19-12-15-19-12-15-19-12-15-19-12-15-19-12-15-19-12-15-19-|


                                                                           
--12-17-20-12-17-20-12-17-20-12-17-20-12-17-20-12-17-20-12-17-20-12-17-20-|


                                                                           
--10-14-17-10-14-17-10-14-17-10-14-17-10-14-17-10-14-17-10-14-17-10-14-17-|


                                                                           
--10-14-19-10-14-19-10-14-19-10-14-19-10-14-19-10-14-19-10-14-19-10-14-19-|


                                                                
-------------------------------|-------------------------------|
-------------------------------|-------------------------------|
-------------------------------|-------------------------------|
-------------------------------|-------------------------------|
-------------------------------|--0--0--0--0-0-0-0-0-0-0-0-0-0-|
--0--0--0--0-0-0-0-0-0-0-0-0-0-|-------------------------------|


                                                           
-------------------------------|--------------------------|
-------------------------------|--------------------------|
-------------------------------|--------------------------|
-------------------------------|--------------------------|
--5--5--5--5-5-5-5-5-5-5-5-5-5-|--2--2--2--2--2--2--------|
-------------------------------|--------------------3--2--|


                                                                
-------------------------------|-------------------------------|
-------------------------------|-------------------------------|
-------------------------------|-------------------------------|
-------------------------------|-------------------------------|
-------------------------------|--0--0--0--0-0-0-0-0-0-0-0-0-0-|
--0--0--0--0-0-0-0-0-0-0-0-0-0-|-------------------------------|


                                                           
-------------------------------|--------------------------|
-------------------------------|--------------------------|
-------------------------------|--------------------------|
-------------------------------|--------------------------|
--5--5--5--5-5-5-5-5-5-5-5-5-5-|--2--2--2--2--2--2--------|
-------------------------------|--------------------3--2--|


                                     
-----------------------------------||
-----------------------------------||
-----------------------------------||
--2--------------------------------||
--2--------------------------------||
--0--------------------------------||
            
Submit corrections


        To Mega Therion lessons Hard to play? Try these video lessons and learn fast To Mega Therion lessons
        
↑ Back to top | Tablatures and chords for acoustic guitar and electric guitar, ukulele, drums are parodies/interpretations of the original songs. You may use it for private study, scholarship, research or language learning purposes only