» » »

Therion - To Mega Therion Tabs

Artists:  A B C D E F G H I J K L M N O P Q R S T U V W X Y Z # 

To Mega Therion Tabs

(ver. 1) Click to play this song!
Therion
 Rating:
4/5 (4 votes)

 To Mega Therion lessons Tabs too difficult? Try these video lessons and learn fast
 
                Therion 
"To Mega Therion" ( C# tuning )
Theli


Intro
|---------------------------------------------------------|
|---------------------------------------------------------|
|---------------------------------------------------------|
|-----------------------4---------------------------4-----|
|-2-2-----2-----2-2-----2-----2-2-----2-----2-2-----2-----|
|-0-0-----0-----0-0-----------0-0-----0-----0-0-----------|

Verse
|---------------------------------|-----------------------------|
|---------------------------------|-----------------------------|
|---------------------------------|-----------------------------|
|---------------------------------|-4-------4-------4-------4-4-|
|-2-------2-------2-------2-------|-2---2-2-2---2-2-2---2-2-2-2-|
|-0---0-0-0---0-0-0---0-0-0---0-0-|-----------------------------|

Chorus - the 2nd bar is played 2 times , then the structure is repeated
|-------------|---------------------------------|
|-------------|---------------------------------|
|-------------|---------------------------------|
|-------8-----|-4---4-4-4-4/5\4---4-4/5/8-8-8-8-|
|-2-----6-----|-2---2-2-2-2/3\2---2-2/3/6-6-6-6-|
|-0-----6-----|---------------------------------|

2'07"
|---------|
|---------|
|---------|
|-8-8-8-8-|
|-6-6-6-6-|
|---------|

The second guitar plays these opened notes in the 1st time only 
|---------------------------------|---------------------------------|
|---------------------------------|---------------------------------|
|---------------------------------|---------------------------------|
|---------4-4-------------4-4-----|---------------------------------|
|-----5-5-----5-5-----5-5-----5-5-|-----4-4-7-7-4-4-----4-4-7-7-4-4-|
|-7-7-------------7-7-------------|-6-6-------------6-6-------------|
|                                                                   | 
|-----2---------------------------|-----0---------------------------|
|---3-----------------------------|---2-----------------------------|
|-4-------------------------------|-3-------------------------------|
|---------------------------------|---------------------------------|
|---------------------------------|---------------------------------|
|---------------------------------|---------------------------------|

|---------------------------------|---------------------------------|
|---------------------------------|---------------------------------|
|---------------------------------|---------------------------------|
|---------5-5-------------5-5-----|---------4-4-------------4-4-----|
|-4-4-7-7-----7-7-4-4-7-7-----7-7-|-----5-5-----5-5-----5-5-----5-5-|
|---------------------------------|-7-7-------------7-7-------------|
|                                                                   |
|-----3---------------------------|-----2---------------------------|
|---5-----------------------------|---3-----------------------------|
|-6-------------------------------|-4-------------------------------|
|---------------------------------|---------------------------------|
|---------------------------------|---------------------------------|
|---------------------------------|---------------------------------|

2'49" - played 2 times 
|-----------------|-----------------|-----------------|-----------------|
|-----------------|-----------------|-----------------|-----------------|
|-6---6-6---------|-----------------|-----------------|-----------------|
|-4---4-4-6---6-6-|-7---7-7-2---2-2-|-7---7-7-2---2-2-|-6---6-6-6---6-6-|
|---------4---4-4-|-5---5-5-0---0-0-|-5---5-5-0---0-0-|-4---4-4-4---4-4-|
|-----------------|-----------------|-----------------|-----------------|

3'17" - each bar is played 2 times 
|-17p15p13--------------------------|-17p15p13--------------------------|
|----------17p15p14-12--------------|----------17p15p14-11--------------|
|-----------------------------------|-----------------------------------|
|-----------------------------------|-----------------------------------|
|-----------------------------------|-----------------------------------|
|-----------------------------------|-----------------------------------|

|-17p15p13--------------------------|-17p15p13--------------------------|
|----------17p15p14-14--------------|----------17p15p14-12--------------|
|-----------------------------------|-----------------------------------|
|-----------------------------------|-----------------------------------|
|-----------------------------------|-----------------------------------|
|-----------------------------------|-----------------------------------|

3'31"                                                             3'45"
|----------------------------12--------------------------10-12-14-|14~~~-|
|-12---14-12-11---11-12-14------14-12-11-12-----11h12h14----------|------|
|-----------------------------------------------------------------|------|
|-----------------------------------------------------------------|------|
|-----------------------------------------------------------------|------|
|-----------------------------------------------------------------|------|

3'45" , with D# above . Played 2 times .
|-----------------|----------------|-----------------|-----------------|
|-7---7-7---------|----------------|-----------------|-----------------|
|---------6---6-6-|-7---7-7--------|-7---7-7---------|-6---6-6-9---7-6-|
|-----------------|--------7---7-7-|---------7---7-7-|-----------------|
|-----------------|----------------|-----------------|-----------------|
|-----------------|----------------|-----------------|-----------------|

5'09"
|---------|---------|---------|---------|
|---------|---------|---------|---------|
|---------|---------|---------|---------|
|-8-8-8-8-|-8-8-8-8-|-8-8-8-8-|-8-8-8-8-|
|-6-6-6-6-|-6-6-6-6-|-6-6-6-6-|-6-6-6-6-|
|---------|---------|---------|---------|

5'12" : last part for the rhythm guitar , 
finishing with a C# powerchord at 6'21" . 
|-------------------------------|---------------------------------|
|-------------------------------|---------------------------------|
|-------------------------------|---------------------------------|
|-------------------------------|---------------------------------|
|-------------------------------|-0---0---0---0-0-0-0-0-0-0-0-0-0-|
|-0---0---0---0-0-0-0-0-0-0-0-0-|---------------------------------|

|-------------------------------|---------------------------------|
|-------------------------------|---------------------------------|
|-------------------------------|---------------------------------|
|-0---0---0---0-0-0-0-0-0-0-0-0-|---------------------------------|
|-------------------------------|-2---2---2---2-2-2-2-2-2---------|
|-------------------------------|---------------------------3---2-|

5'26"
|-12---12-12-10-12----10---------------------------------------------------|
|------------------13----12-13-10-12-13---13-13-12-13-10-12-8-10-8-10-12---|
|--------------------------------------------------------------------------|
|--------------------------------------------------------------------------|
|--------------------------------------------------------------------------|
|--------------------------------------------------------------------------|

|-------------------------------------------------------------|
|-12/15-15\13-13\12-12\10-10/12-12\10-10~~~-8---7~~~-8-7-5~~~-|
|-------------------------------------------------------------|
|-------------------------------------------------------------|
|-------------------------------------------------------------|
|-------------------------------------------------------------|

5'53" : the 1st note of each bar is a tapping .
|-19p15p12-|-20p15p12-|-17p15p12-|-19p15p12-|-12~~~-----------|
|----------|----------|----------|----------|-----------------|
|----------|----------|----------|----------|-----------------|
|----------|----------|----------|----------|-----------------|
|----------|----------|----------|----------|-----------------|
|----------|----------|----------|----------|-----------------|
each bar is played 8 times 

Great song! Here are some the lyrics. Therion rules!!!

To megatherion: 

Powers of Thagirion
Watch the Great Beast to be
For To Mega Therion
The Draconian melody
The Dragon open the eye
And reveal both truth and lie
Spiritual supremacy

Ride the Beast of ecstasy
Spiritual supremacy
Ride the Beast of ecstasy

Ialbaophs creative spark
Manifests the utmost dark
Ialbaophs creative spark

Meaning of the letter Theth
Hide the force of Baphomet
Meaning of the letter Theth

The wound of Baal will be healed
When sign of time is unsealed
The wound of Baal will be healed

The world will burn by Soraths flame
And through the solar sign proclaim

Ascending fiend of the sea
Will fulfill prophecy
Man will feel the wrath of Beast
When fenris wolf is released
The Dragon open the eye
Reveal both truth and lie
Spiritual supremacy

The end of revelation
A soulful violation
The end of revelation

Bear the mark of victory
And the spear of destiny
Bear the mark of victory

Powers of Thagirion
For To Mega Therion
Powers of Thagirion

Watch the Great Beast to be
The Draconian melody
Watch the Great Beast to be

The world will burn by Soraths flame
And through the solar sign proclaim

Powers of Thagirion
Is the Great Beast to be
The To Mega Therion

Powers of Thagirion
For To Mega Therion
Powers of Thagirion

Watch the Great Beast to be
The Draconian melody
Watch the Great Beast to be

Meaning of the letter Theth
Hide the force of Baphomet
Meaning of the letter Theth

The wound of Baal will be healed
When sign of time is unsealed
The wound of Baal will be healed

The world will burn by Soraths flame
And through the solar sign proclaim
            
Submit corrections


        To Mega Therion lessons Hard to play? Try these video lessons and learn fast To Mega Therion lessons
        
↑ Back to top | Tablatures and chords for acoustic guitar and electric guitar, ukulele, drums are parodies/interpretations of the original songs. You may use it for private study, scholarship, research or language learning purposes only